U2 - Heartland Chords & Tabs

 

Heartland Chords & Tabs

U2 Chords & Tabs

Version: 1 Type: Bass Tab 0 ratings
1 star 2 stars 3 stars 4 stars 5 stars
comments

Heartland Bass Tab

   
U2
Here's the tabs to Heartland

Intro
E-3-3-3-3-3-3-3-3-3-3-3-3-3-3-3-3- 
(repeat for a while)
2nd part of intro
A---------------------------------3-3-3-3-3-3-3-3-3-3-3-3-3-3-3-3
E-3-3-3-3-3-3-3-3-3-3-3-3-3-3-3-3--------------------------------

A-1-1-1-1-1-1-1-1-1-1-1-1---------3-3-3-3-3-3-3-3-3-3-3-3-3-3-3-3
E-------------------------3-3-3-3--------------------------------
(only once)
Verse

A-3-5-3-0-3-5-3-0-3-5-3-0-3-5-3-0
(repeat again)
[ Tab from: http://www.guitartabs.cc/tabs/u/u2/heartland_btab.html ]
Pre chorus
A-1-1-1-1-1-1-1-1-1-1-1-1---------3-3-3-3-3-3-3-3-3-3-3-3-3-3-3-3
E-------------------------3-3-3-3--------------------------------
(twice, I think, maybe three times)

Chorus:

G----------------------------------------------------------------
D----------------------------------------------------------------
A-------------------------1-1-3-3--------------------------------
E-3-3-3-3-3-3-3-3-3-3-3-3---------1-1-1-1-1-1-1-1-1-1-1-1-1-1-1-1

Mike Parsons
mmp@hawking.unh.edu
Comments