U2 - Elevation Chords & Tabs

 

Elevation Chords & Tabs

U2 Chords & Tabs

Version: 1 Type: Tab 1 rating
1 star 2 stars 3 stars 4 stars 5 stars
comments

Elevation Tab

Elevation by U2
Tabber angelsotomayor@msn.com
Played whit a standar afination
Intro (played with distortion)
--------------------------|--------------------------|
--------------------------|--------------------------|
--------------------------|--------------------------|
--------------------------|--------------------------|
--7--7--7-----------------|--7--7--7-----------------|
-----------5--5--5--5--5--|-----------5--5--5--5--5--|

That is the verse part
----------------------------|--------------------------|
----------------------------|--------------------------|
----9h7-9-----9h7-9h7-9-----|----9h7-9-----9--7-----7--|
-----------9-------------9--|-----------9--------9-----|
----------------------------|--------------------------|
----------------------------|--------------------------|


                                                       
----------------------------|-------------------------|
----------------------------|-------------------------|
----9h7-9-----9h7-9h7-9-----|----9h7-9-------9--7-----|
-----------9-------------9--|-----------9----------9--|
----------------------------|-------------------------|
----------------------------|-------------------------|


                                                        
----------------------------|--------------------------|
----------------------------|--------------------------|
----9h7-9-----9h7-9h7-9-----|----9h7-9-----9--7-----7--|
-----------9-------------9--|-----------9--------9-----|
----------------------------|--------------------------|
----------------------------|--------------------------|


                                                       
----------------------------|-------------------------|
----------------------------|-------------------------|
----9h7-9-----9h7-9h7-9-----|----9h7-9-------9--7-----|
-----------9-------------9--|-----------9----------9--|
----------------------------|-------------------------|
----------------------------|-------------------------|
   and this is the chorus repeat sometimes lisen the song                                                                  
E||------------------|------------------|------------------------|
B||------------------|------------------|--9----9---x-x-x-14--14-|
G||------------------|------------------|--9----9---x-x-x-14--14-|
D||------------------|------------------|--9----9---x-x-x-14--14-|
A||------------------|------------------|--7----7---x-x-x-12--12-|
E||------------------|------------------|------------------------|

[ Tab from: http://www.guitartabs.cc/tabs/u/u2/elevation_tab.html ]
                                                        
---------------------------|---------------------------|
--9----9---x-x-x-14--14----|--9----9---x-x-x-14--14----|
--9----9---x-x-x-14--14----|--9----9---x-x-x-14--14----|
--9----9---x-x-x-14--14----|--9----9---x-x-x-14--14----|
--7----7---x-x-x-12--12----|--7----7---x-x-x-12--12----|
---------------------------|---------------------------|


                                  
--------------------------------||
--------------------------------||
--16----16---16-16/14-14--14----||
--16----16---16-16/14-14--14----||
--14----14---14-14/12-12--12----||
--------------------------------||

then comes the outro part
--------------------------------------------------|
--------------------------------------------------|
--9-9-9-9-9-9-9-9-9-9-9-9-8-8-8-8-8-8-8-8-8-8-8-8-|
--------------------------------------------------|
--7-7-7-7-7-7-7-7-7-7-7-7-6-6-6-6-6-6-6-6-6-6-6-6-|
--------------------------------------------------|


                                    
-----------------------------------|
-----------------------------------|
--7-7-7-7-7-7-7-7-7-7-7-7-7--------|
-----------------------------------|
--5-5-5-5-5-5-5-5-5-5-5-5-5--------|
-----------------------------------|


                                                   
--------------------------------------------------|
--------------------------------------------------|
--9-9-9-9-9-9-9-9-9-9-9-9-8-8-8-8-8-8-8-8-8-8-8-8-|
--------------------------------------------------|
--7-7-7-7-7-7-7-7-7-7-7-7-6-6-6-6-6-6-6-6-6-6-6-6-|
--------------------------------------------------|


                                    
-----------------------------------|
-----------------------------------|
--7-7-7-7-7-7-7-7-7-7-7-7-7--------|
-----------------------------------|
--5-5-5-5-5-5-5-5-5-5-5-5-5--------|
-----------------------------------|


                                                   
--------------------------------------------------|
--------------------------------------------------|
--9-9-9-9-9-9-9-9-9-9-9-9-8-8-8-8-8-8-8-8-8-8-8-8-|
--------------------------------------------------|
--7-7-7-7-7-7-7-7-7-7-7-7-6-6-6-6-6-6-6-6-6-6-6-6-|
--------------------------------------------------|


                                    
-----------------------------------|
-----------------------------------|
--7-7-7-7-7-7-7-7-7-7-7-7-7--------|
-----------------------------------|
--5-5-5-5-5-5-5-5-5-5-5-5-5--------|
-----------------------------------|


                                                   
--------------------------------------------------|
--------------------------------------------------|
--9-9-9-9-9-9-9-9-9-9-9-9-8-8-8-8-8-8-8-8-8-8-8-8-|
--------------------------------------------------|
--7-7-7-7-7-7-7-7-7-7-7-7-6-6-6-6-6-6-6-6-6-6-6-6-|
--------------------------------------------------|


                                     
-----------------------------------||
-----------------------------------||
--7-7-7-7-7-7-7-7-7-7-7-7-7--------||
-----------------------------------||
--5-5-5-5-5-5-5-5-5-5-5-5-5--------||
-----------------------------------||

intro
verse
chorus
verse
chorus
outro
I love rock&roll and god bless all America!!!!!!
Comments