U2 - Electrical Storm Chords & Tabs

 

Electrical Storm Chords & Tabs

U2 Chords & Tabs

Version: 1 Type: Chords 0 ratings
1 star 2 stars 3 stars 4 stars 5 stars
comments

Electrical Storm Chords

   
electrical storm by U2

  F#M    A	  E	  B
E --2--------------0------------------------------------------
B --2----2--------0--------4------------------------------------
G --2----2--------1--------4------------------------------------
D --4----2--------2--------4------------------------------------
A --4----0--------2--------2------------------------------------
E -----------------0-----------------------------------------

------7-9-------7-9----------5-7--------5-7---------------------------------
--7---------7-------------7----------7-----------------------------------------
---------------------------------------------------------------------------------
---------------------------------------------------------------------------------
---------------------------------------------------------------------------------
---------------------------------------------------------------------------------

[ Tab from: http://www.guitartabs.cc/tabs/u/u2/electrical_storm_crd.html ]
Prechorus
If the sky can crack there must be someway back, I know its not enough
D	 	  E		      A			  C#m		   D
-2-----------------0--------------------------------------------4--------------------------------
-3-----------------0--------------------2----------------------5-----------------7-----------------
-2-----------------1--------------------2----------------------6-----------------7-----------------
-0-----------------2--------------------2----------------------6-----------------7-----------------
--------------------2--------------------0----------------------4----------------5----------------
--------------------0--------------------------------------------------------------------------

Chorus


-2-------------2-----------|----------------------------------------------------------
-3-------------2------2---|-----------------4-------------------------------------------
-2-------------2------2---|--X3-----------4-----------------------------------------------
-0-----2-------4-----2---|-----------------4-------------------------------------------
--------2------4------0---|-----------------2-----------------------------------------
--------0------------------|-------------------------------------------------------

-------9-----------9--7--9-----------------------------------------------------------
--7-----------------------------X3--------7------------------------------------------
---------------------------------------------------------------------------------
---------------------------------------------------------------------------------
---------------------------------------------------------------------------------
---------------------------------------------------------------------------------

Outro:

			   Babe don’t cry
-1-----------0-----------0----------------------------------------------------------
-1----5-----0----2-----0-----------------2---------------------------------------------
-2----5-----0----2-----0-----------------2---------------------------------------------
-3----5-----2----2-----2-----------------2---------------------------------------------
-3----3-----2----0-----2-----------------0---------------------------------------------
-1----------0------------0----------------------------------------------------------
Comments