U2 - Electrical Storm Chords & Tabs

 

Electrical Storm Chords & Tabs

U2 Chords & Tabs

Version: 1 Type: Bass Tab 0 ratings
1 star 2 stars 3 stars 4 stars 5 stars
comments

Electrical Storm Bass Tab

-------------------------------------------------------------------------------
			     ELECTRICAL STORM - U2
-------------------------------------------------------------------------------



Although it may not all be played on the E string by Adam, I find that
it gives this song the best tone... Keep in mind that 

there are two versions of the song... This is the remix (Orbital Mix).
(The notes are the same for the regular mix but they are not in the same order.)


Intro: (Play this very lightly)
---------------------------------------------------------------------------| 
---------------------------------------------------------------------------|
---------------------------------------------------------------------------|
--2-5-0-7------------------------------------------------------------------|

Verse:
---------------------------------------------------------------------------|
---------------------------------------------------------------------------|
---------------------------------------------------------------------------|
--2-5-00-7-7\2-------------------------------------------------------------|

Pre-chorus:
---------------------------------------------------------------------------|
---------------------------------------------------------------------------|
---------------------------------------------------------------------------|
--5-7-9-12--5-7-9-12--9-11-12-16-14-16-14-12\9-----------------------------|
[ Tab from: http://www.guitartabs.cc/tabs/u/u2/electrical_storm_btab.html ]
Chorus:
---------------------------------------------------------------------------|
---------------------------------------------------------------------------|
---------------------------------------------------------------------------|
--10-12---14-16-17-21\9----------------------------------------------------|

Chorus Ending:
---------------------------------------------------------------------------|
---------------------------------------------------------------------------|
---------------------------------------------------------------------------|
--21-21-21-21-21-19-17-19-19-19-19-19--17-16-------------------------------|

Pre-outro:
---------------------------------------------------------------------------|
---------------------------------------------------------------------------|
---------------------------------------------------------------------------|
--1-1-111/8-7-3--5-5-42----------------------------------------------------|

Outro:
---------------------------------------------------------------------------|
---------------------------------------------------------------------------|
---------------------------------------------------------------------------|
--5-5-42-7-5-2-------------------------------------------------------------|

Ending Bar:
---------------------------------------------------------------------------|
---------------------------------------------------------------------------|
---------------------------------------------------------------------------|
--5-5-42-/7----------------------------------------------------------------|


  ||Order:                 |
  ||-  Intro          - 16x|
  ||-  Verse          - 6x |
  ||-  Pre-chorus     - 2x |
  ||-  Chorus         - 3x |
  ||-  Chorus Ending  - 1x |
  ||-  Intro          - 2x |
  ||-  Verse          - 4x |
  ||-  Pre-chorus     - 2x |
  ||-  Chorus         - 3x |
  ||-  Chorus Ending  - 1x |
  ||-  Pre-outro      - 1x |
  ||-  Outro          - 5x |
  ||-  Ending Bar     - 1x |
Comments