U2 - Discotheque Chords & Tabs

 

Discotheque Chords & Tabs

U2 Chords & Tabs

Version: 2 Type: Tab 0 ratings
1 star 2 stars 3 stars 4 stars 5 stars
comments

Discotheque Tab

   
e|----------------------------------------|----------------------------------------|
B|----------------------------------------|----------------------------------------|
G|----------------------------------------|----------------------------------------|
D|----------------------------------------|----------------------------------------|
A|---5--------7---------5-----------------|---5--------7---------5-----------------|
E|-----7---7-----7----7----7----7--7--5-7-|-----7---7-----7----7----7----7--7--5-7-|
 
confused                           But you know it
e|----------------------------------------|----------------------------------------|
B|----------------------------------------|----------------------------------------|
G|----------------------------------------|----------------------------------------|
D|----------------------------------------|----------------------------------------|
A|---5--------7---------5-----------------|---5--------7---------5-----------------|
E|-----7---7-----7----7----7----7--7--5-7-|-----7---7-----7----7----7----7--7--5-7-|
 
Yeah you hurt for it, work for it, love  You don't always show it
e|----------------------------------------|----------------------------------------|
B|----------------------------------------|----------------------------------------|
G|----------------------------------------|----------------------------------------|
D|----------------------------------------|----------------------------------------|
A|---5--------7---------5-----------------|---5--------7---------5-----------------|
E|-----7---7-----7----7----7----7--7--5-7-|-----7---7-----7----7----7----7--7--5-7-|
 
 Lets go                                Discotheque
e|----------------------------------------|----------------------------------------|
B|----------------------------------------|----------------------------------------|
G|----------------------------------------|----------------------------------------|
D|----------------------------------------|----------------------------------------|
A|-(9)--x--x--x--x--x--x--x---x---x---x---|---5--------7---------5-----------------|
E|-(7)--x--x--x--x--x--x--x---x---x---x---|-----7---7-----7----7----7----7--7--5-7-|
 
 Lets go                                Discotheque
e|----------------------------------------|----------------------------------------|
B|----------------------------------------|----------------------------------------|
G|----------------------------------------|----------------------------------------|
D|----------------------------------------|----------------------------------------|
A|-(9)--x--x--x--x--x--x--x---x---x---x---|---5--------7---------5-----------------|
E|-(7)--x--x--x--x--x--x--x---x---x---x---|-----7---7-----7----7----7----7--7--5-7-|
 
       Looking for the one            But you know you're somewhere else instead 
e|-----------------------------------|-----------------------------------|
B|--7--7---6-7--7--7----7-7----------|--7--7---6-7--7--7----7-7----------|
G|--7--7---6-7--7--7----7-7----------|--7--7---6-7--7--7----7-7----------|
D|--7--7---6-7--7--7----7-7----------|--7--7---6-7--7--7----7-7----------|
A|--5--5---4-5--9--9----9-9----------|--5--5---4-5--9--9----9-9----------|
E|-----------------------------------|-----------------------------------|
 
    You wanna be the song             Be the song that you hear in your head
e|-----------------------------------|-----------------------------------|
B|--7--7---6-7--7--7----7-7----------|--7--7---6-7--7--7----7-7----------|
G|--7--7---6-7--7--7----7-7----------|--7--7---6-7--7--7----7-7----------|
D|--7--7---6-7--7--7----7-7----------|--7--7---6-7--7--7----7-7----------|
A|--5--5---4-5--9--9----9-9----------|--5--5---4-5--9--9----9-9----------|
E|-----------------------------------|-----------------------------------|
 

e|----------------------------------------|----------------------------------------|
B|----------------------------------------|----------------------------------------|
G|----------------------------------------|----------------------------------------|
D|----------------------------------------|----------------------------------------|
A|---5--------7---------5-----------------|---5--------7---------5-----------------|
E|-----7---7-----7----7----7----7--7--5-7-|-----7---7-----7----7----7----7--7--5-7-|
 
e|----------------------------------------|----------------------------------------|
B|----------------------------------------|----------------------------------------|
G|----------------------------------------|----------------------------------------|
D|----------------------------------------|----------------------------------------|
A|---5--------7---------5-----------------|---5--------7---------5-----------------|
E|-----7---7-----7----7----7----7--7--5-7-|-----7---7-----7----7----7----7--7--5-7-|
 
It's no trick                        'Cause you can't learn it
e|----------------------------------------|----------------------------------------|
B|----------------------------------------|----------------------------------------|
G|----------------------------------------|----------------------------------------|
D|----------------------------------------|----------------------------------------|
A|---5--------7---------5-----------------|---5--------7---------5-----------------|
E|-----7---7-----7----7----7----7--7--5-7-|-----7---7-----7----7----7----7--7--5-7-|
 
It's the way you don't pay, that's okay  'Cause you can't earn it
e|----------------------------------------|----------------------------------------|
B|----------------------------------------|----------------------------------------|
G|----------------------------------------|----------------------------------------|
D|----------------------------------------|----------------------------------------|
A|---5--------7---------5-----------------|---5--------7---------5-----------------|
E|-----7---7-----7----7----7----7--7--5-7-|-----7---7-----7----7----7----7--7--5-7-|
 
[ Tab from: http://www.guitartabs.cc/tabs/u/u2/discotheque_tab_ver_2.html ]
 Lets go                                Discotheque
e|----------------------------------------|----------------------------------------|
B|----------------------------------------|----------------------------------------|
G|----------------------------------------|----------------------------------------|
D|----------------------------------------|----------------------------------------|
A|-(9)--x--x--x--x--x--x--x---x---x---x---|---5--------7---------5-----------------|
E|-(7)--x--x--x--x--x--x--x---x---x---x---|-----7---7-----7----7----7----7--7--5-7-|
 
 Lets go                                Discotheque
e|----------------------------------------|----------------------------------------|
B|----------------------------------------|----------------------------------------|
G|----------------------------------------|----------------------------------------|
D|----------------------------------------|----------------------------------------|
A|-(9)--x--x--x--x--x--x--x---x---x---x---|---5--------7---------5-----------------|
E|-(7)--x--x--x--x--x--x--x---x---x---x---|-----7---7-----7----7----7----7--7--5-7-|
 
 ahh        ah ah     yeah
e|----------------------------------------|----------------------------------------|
B|----------------------------------------|----------------------------------------|
G|----------------------------------------|----------------------------------------|
D|----------------------------------------|----------------------------------------|
A|-(9)--x--x--x--x--x--x--x---x---x---x---|---5--------7---------5-----------------|
E|-(7)--x--x--x--x--x--x--x---x---x---x---|-----7---7-----7----7----7----7--7--5-7-|
 

       Looking for the one            But you know you're somewhere else instead 
e|-----------------------------------|-----------------------------------|
B|--7--7---6-7--7--7----7-7----------|--7--7---6-7--7--7----7-7----------|
G|--7--7---6-7--7--7----7-7----------|--7--7---6-7--7--7----7-7----------|
D|--7--7---6-7--7--7----7-7----------|--7--7---6-7--7--7----7-7----------|
A|--5--5---4-5--9--9----9-9----------|--5--5---4-5--9--9----9-9----------|
E|-----------------------------------|-----------------------------------|
 
    You wanna be the song             Be the song that you hear in your head
e|-----------------------------------|-----------------------------------|
B|--7--7---6-7--7--7----7-7----------|--7--7---6-7--7--7----7-7----------|
G|--7--7---6-7--7--7----7-7----------|--7--7---6-7--7--7----7-7----------|
D|--7--7---6-7--7--7----7-7----------|--7--7---6-7--7--7----7-7----------|
A|--5--5---4-5--9--9----9-9----------|--5--5---4-5--9--9----9-9----------|
E|-----------------------------------|-----------------------------------|
 
  oh 
e|---------------7------|---------------7------|---------------7------|---------------7------|
B|------7----10----10---|------7----10----10---|------9----10----10---|------9----10----10---|
G|----7---7-------------|----7---7-------------|----9---9-------------|----9---9-------------|x6
D|-9--------------------|-9--------------------|-9--------------------|-9--------------------|
A|----------------------|----------------------|----------------------|----------------------|
E|----------------------|----------------------|----------------------|----------------------|
 
  You want heaven  heaven  in your heart
e|---------------7------|---------------7------|---------------7------|---------------7------|
B|------7----10----10---|------7----10----10---|------9----10----10---|------9----10----10---|
G|----7---7-------------|----7---7-------------|----9---9-------------|----9---9-------------|
D|-9--------------------|-9--------------------|-9--------------------|-9--------------------|
A|----------------------|----------------------|----------------------|----------------------|
E|----------------------|----------------------|----------------------|----------------------|
 
  You want heaven  heaven  in your heart         But you take what you can get
e|---------------7------|---------------7------|---------------7------|---------------7------|
B|------7----10----10---|------7----10----10---|------9----10----10---|------9----10----10---|
G|----7---7-------------|----7---7-------------|----9---9-------------|----9---9-------------|
D|-9--------------------|-9--------------------|-9--------------------|-9--------------------|
A|----------------------|----------------------|----------------------|----------------------|
E|----------------------|----------------------|----------------------|----------------------|
 
    'Cause it's all that you can find            Oh you know there's something more
e|---------------7------|---------------7------|---------------7------|---------------7------|
B|------7----10----10---|------7----10----10---|------9----10----10---|------9----10----10---|
G|----7---7-------------|----7---7-------------|----9---9-------------|----9---9-------------|
D|-9--------------------|-9--------------------|-9--------------------|-9--------------------|
A|----------------------|----------------------|----------------------|----------------------|
E|----------------------|----------------------|----------------------|----------------------|
 
   Tonight,       tonight,      tonight        ahh          ah              ahhhhhhhh
e|-------7-------7------|-7--------7--------7--|----7--------7-------7|-------7--------7-----|
B|----5-------5--------5|-------5--------5-----|-5--------5--------5--|----5--------5-------5|
G|-7-------7--------7---|----7--------7-------7|-------7--------7-----|-7--------7-------7---|
D|----------------------|----------------------|----------------------|----------------------|
A|----------------------|----------------------|----------------------|----------------------|
E|----------------------|----------------------|----------------------|----------------------|
 
 
Listen to cd for the ending part.Where "jetplane" guitar is played Edge seems to just hit
A|9-
E|7- this chord over and over and...So if you know what he uses for that sound let me know.
 
  Boom cha              Boom cha              Discotheque
e|----------------------|----------------------|----------------------|----------------------|
B|----------------------|----------------------|----------------------|----------------------|
G|----------------------|----------------------|----------------------|----------------------|
D|----------------------|----------------------|----------------------|----------------------|
A|----------------------|----------------------|----------------------|----------------------|
E|-7-7-5-7-5--7-7-5-7-5-|-7-7-5-7-5--7-7-5-7-5-|-7-7-5-7-5--7-7-5-7-5-|-7-7-5-7-5--7-7-5-7-5-|
 
Continue with the chord A|9- about 16 bars until drums and bass stop.
                        E|7-
turn "phaser" off and use only distortion here
 
  
e|----------------------|----------------------|----------------------|----------------------|
B|----------------------|----------------------|----------------------|----------------------|
G|----------------------|----------------------|----------------------|----------------------|
D|----------------------|----------------------|----------------------|----------------------|
A|----------------------|----------------------|----------------------|----------------------|
E|-7-7-5-7-5--7-7-5-7-5-|-7-7-5-7-5--7-7-5-7-5-|-7-7-5-7-5--7-7-5-7-5-|-7-7-5-7-5--7-7-5-7-5-|
 
  Drums and bass enters again turn "phaser" on continue the chord 8bars and then
e|----------------------|----------------------|
B|----------------------|----------------------|
G|----------------------|----------------------|
D|----------------------|----------------------|
A|----------------------|----------------------|
E|-7---5-7--5-7---------|-5-7--5-7---5-7--5-7--|
 
              And here?s intro to velvet dress 
e|----------|--------------------|------------------|
B|----------|--------------------|------------------|
G|----------|--------------------|------------------|
D|----------|--------------------|------------------|
A|----------|--------------------|------------------|
E|-5-7--5-7-|-(7)----5----4----3-|-7----5----4----3-|

im not to sure if this is right cause this is my first tab. so anyone wanna correct me go ahead. thank you.
Comments