U2 - Desire Acoustic Chords & Tabs

 

Desire Acoustic Chords & Tabs

U2 Chords & Tabs

Version: 1 Type: Tab 0 ratings
1 star 2 stars 3 stars 4 stars 5 stars
comments

Desire Acoustic Tab

   
DESIRE (acoustic)

Music by U2 - Lyrics by Bono and The Edge

(LIVE VERSION FROM POPMART TOUR - 1997)

[Tune down your guitar 1/2 step - USE ACOUSTIC GUITAR]

Dus4 A E  A E
1--0-0-------------|
2--3-2-0--0-0------|
3--2-2-1--2-1------|
4--0-2-2--2-2------|
5--0-0-2--2-2------|
6------0--0-0------|

Lover I'm off the streets
Gonna go where the bright lights
and the big city meet

1--0-0-0--0-0-0-0-0-0--|
2--3-3-3--2-2-0-2-0-2--|
3--2-2-2--2-2-2-2-2-2--|
4--0-0-0--2-2-2-2-2-2--|
5--0-0-0--0-0-0-0-0-0--|
6----------------------|

With a red guitar, on fire

1--0-0-------------|
2--3-2-0--0-0------|
3--2-2-1--2-1------|
4--0-2-2--2-2------|
5--0-0-2--2-2------|
6------0--0-0------|

   Desire
She's the candle
burning in my room
I'm like the needle
needle and spoon
Over the counter
with a shotgun
Pretty soon, everybody got one

1--0-0-0--0-0-0-0-0-0--|
2--3-3-3--2-2-0-2-0-2--|
3--2-2-2--2-2-2-2-2-2--|
4--0-0-0--2-2-2-2-2-2--|
5--0-0-0--0-0-0-0-0-0--|
6----------------------|
[ Tab from: http://www.guitartabs.cc/tabs/u/u2/desire_acoustic_tab.html ]
And the fever when I'm beside her

1--0-0-------------|
2--3-2-0--0-0------|
3--2-2-1--2-1------|
4--0-2-2--2-2------|
5--0-0-2--2-2------|
6------0--0-0------|

   Desire, Desire

1--0-0-0--0-0-0-0-0-0---0-0-0-0-0----|
2--3-3-3--2-2-0-2-0-2---3-3-3-3-3--0-|
3--2-2-2--2-2-2-2-2-2---2-2-2-2-2--1-|
4--0-0-0--2-2-2-2-2-2---0-0-0-0-0--2-|
5--0-0-0--0-0-0-0-0-0---0-0-0-0-0--2-|
6----------------------------------0-|

Burning, Burning

1--0-0-------------|
2--3-2-0--0-0------|
3--2-2-1--2-1------|
4--0-2-2--2-2------|
5--0-0-2--2-2------|
6------0--0-0------|

She's the dollars
She's my protection
She's the promise
In the year of election

1--0-0-0--0-0-0-0-0-0--|
2--3-3-3--2-2-0-2-0-2--|
3--2-2-2--2-2-2-2-2-2--|
4--0-0-0--2-2-2-2-2-2--|
5--0-0-0--0-0-0-0-0-0--|
6----------------------|

Sister, I can't let you go

1--0-0-------------|
2--3-2-0--0-0------|
3--2-2-1--2-1------|
4--0-2-2--2-2------|
5--0-0-2--2-2------|
6------0--0-0------|

 Desire...

1--0---0-----|
2--3---2---0-|
3--2---2---1-|
4--0---2---2-|
5--0---0---2-|
6------0---0-|

zooman@exploit.it
Comments