U2 - Dancing Barefoot Chords & Tabs

 

Dancing Barefoot Chords & Tabs

U2 Chords & Tabs

Version: 1 Type: Tab 0 ratings
1 star 2 stars 3 stars 4 stars 5 stars
comments

Dancing Barefoot Tab

   
Dancing Barefoot -  U2

Em    D   Em    A

Em  D  Em  A
She is benediction
Em  D   Em        A
She is addicted to he
Em  D      Em       A
She is the root connection and
Em  D     Em          A
She is connecting with me

Em       D        Em           A
  Here I go and I don't know why
Em  D       Em       A
  I spin so ceaselessly
Em         D       Em     A    Em D Em A
  Could it be he's taking over me

G             A
 I'm dancing barefoot
C            D
Headed for a spin
Em                 A
Some strange music drags me in
C                D             Em
Makes me come up like some heroin

PART C

E--------------------------------------------------------|
B--------------------------------------------------------|
G--9----11-----12/19----9----11----12---11\12/11--7/9----|
D--------------------------------------------------------|
A--------------------------------------------------------|
E--------------------------------------------------------|

Em  D  Em  A
She is sublimation
She is the essence of thee
She is concentrating on he
Who is chosen by she

Em       D        Em           A
  Here I go and I don't know why
Em  D       Em       A
  I spin so ceaselessly
Em         D       Em     A    Em D Em A
  Could it be he's taking over me

G             A
 I'm dancing barefoot
C            D
Headed for a spin
Em                 A
Some strange music drags me in
C                D             Em
Makes me come up like some heroin

E--------------------------------------------------------|
B--------------------------------------------------------|
G--9----11-----12/19----9----11----12---11\12/11--7/9----|
D--------------------------------------------------------|
A--------------------------------------------------------|
E--------------------------------------------------------|
[ Tab from: http://www.guitartabs.cc/tabs/u/u2/dancing_barefoot_tab.html ]
Em  D  Em  A
She is recreation
She intoxicated by thee
She has the slow sensation that he
Is levitating with she

Em       D        Em           A
  Here I go and I don't know why
Em  D       Em       A
  I spin so ceaselessly
Em         D       Em     A    Em D Em A
  Could it be he's taking over me

G             A
 I'm dancing barefoot
C            D
Headed for a spin
Em                 A
Some strange music drags me in
C                D             Em
Makes me come up like some heroin

SOLO

E--------------------------------------------------------|
B-------10-10(b)-10~~~----------10-10(b)-10~~~-----------|
G--9-12--------------------9-12-----------------9---9----|
D-----------------------12--------------------12--12--12-|
A--------------------------------------------------------|
E--------------------------------------------------------|

2x
E------------------------------------------------------------|
B--12~-12-12-12-12-12-12-12-12-12-12--12-10------------------|
G------------------------------------------12-11-9-----------|
D--------------------------------------------------12/14-14~-|
A------------------------------------------------------------|
E------------------------------------------------------------|

E-----------------------------------------------------------|
B-----------------------------------------------------------|
G---------9--------------------------9----------------------|
D-12p11p9-----11-12-11-9-----12p11p9---11-12-11-9-----------|
A------------------------12-----------------------12(b)-----|
E----------------------------------------------------12-10--|

4x
E--------------------|
B--------------------|
G----9-9\7--7--------|
D----9-9\7--7--2--7--|
A----7-7\5--5--2--7--|
E--0-----------0--5--|

4x                   2x
E------------------|-----------------------|
A------------------|-----------------------|
G-9-9-9-9-12(b)----|--9-12-9-12b-9-9-9-----|
D------------------|-----------------------|
A------------------|-----------------------|
E------------------|-----------------------|


[Outro]

Em   D     Em        A
   O God I feel for you

Em   D     Em        A
   O God I feel for you

Em   D     Em        A
   O God I feel for you

Em   D     Em        A   Em
   O God I feel for you
Comments