U2 - City Of Blinding Lights Chords & Tabs

 

City Of Blinding Lights Chords & Tabs

U2 Chords & Tabs

Version: 2 Type: Tab 0 ratings
1 star 2 stars 3 stars 4 stars 5 stars
comments

City Of Blinding Lights Tab

U2 - City of blinding lights
ALbum: how to dismantle an atomic bom
tab by: lennert moens ( hallo_kroket14@hotmail.com )
This is probably 100 % perfect!!!

Piano
-18-------16-------15----------------16-------15-------------------------|
----------------------------18-------------------------18-------16-------|
-------------------------------------------------------------------------|
-------------------------------------------------------------------------|
-------------------------------------------------------------------------|
-------------------------------------------------------------------------|
4X

Melody :
-------------------------------------------------------------------------|
-14-----13--------9--/11--/14------13------9----------9--/11---/14-----|
-------------------------------------------------------------------------|
-------------------------------------------------------------------------|
-------------------------------------------------------------------------|
-------------------------------------------------------------------------|

-------------------------------------------------------------------------|
--13-13-------11----\---6------------------------------------------------|
-------------------------------------------------------------------------|
-------------------------------------------------------------------------|
-------------------------------------------------------------------------|
-------------------------------------------------------------------------|
2X

Chorus : 
e|-11-11-11--11-11-11--11-11-11-11--11-11-11--11-11-11--11-11-11-11-------|
b|-9--9--9--9-9-9---9-9-9--9---9--9--9--9-9-9---9-9-9--9--------|
g|------------------------------------------------------------------------|
d|------------------------------------------------------------------------|
a|------------------------------------------------------------------------|
E|------------------------------------------------------------------------|
( listen to the song and hear how much times, it depends on how fast you play it)
( palm muted)


e|-----11------11-------11-----
b|-9------9--------9---------9-
g|-----------------------------
d|-----------------------------
a|-----------------------------




e|-11-11-11--11-11-11--11-11-11-11-11-11-11-11----11--11-11--11-11-11-11--|
b|-9--9--9--9-9-9---9-9-9--9--8--8--8--8/11--11--8--8/9--9-9-9--9--|
g|------------------------------------------------------------------------|
d|------------------------------------------------------------------------|
a|------------------------------------------------------------------------|
E|------------------------------------------------------------------------|
( same thing here) ( palm muted)






"And I miss you when..."
-9-------7-------6-------7-------6---4---6-------------------------------|
-------------------------------------------------9------7------6-------5-|
-------------------------------------------------------------------------|
-------------------------------------------------------------------------|
-------------------------------------------------------------------------|
-------------------------------------------------------------------------|
2X

"U uu uu ..."

-11-11-11-9-11-11-11-9-11-11-11-9-11-11-11-9-|
-11-11-11-9-11-11-11-9-11-11-11-9-11-11-11-9-|
---------------------------------------------|
---------------------------------------------|
---------------------------------------------|
---------------------------------------------|

-9-9-9-9-11-11-11-11-13-13-13-13-9-9-9-9-----|
-9-9-9-9-9--9--9--9--9-9--9--9--9-9-9-9-----|
---------------------------------------------|
---------------------------------------------|
---------------------------------------------|
---------------------------------------------|
3X

Melody :
-------------------------------------------------------------------------|
-14-----13--------9--/11--/14------13------9----------9--/11---/14-------|
-------------------------------------------------------------------------|
-------------------------------------------------------------------------|
-------------------------------------------------------------------------|
-------------------------------------------------------------------------|

-------------------------------------------------------------------------|
--13-13-------11----\---6------------------------------------------------|
-------------------------------------------------------------------------|
-------------------------------------------------------------------------|
-------------------------------------------------------------------------|
-------------------------------------------------------------------------|
2X





Chorus :
e|-11-11-11--11-11-11--11-11-11-11--11-11-11--11-11-11--11-11-11-11-------|
b|-9--9--9--9-9-9---9-9-9--9---9--9--9--9-9-9---9-9-9--9--------|
g|------------------------------------------------------------------------|
d|------------------------------------------------------------------------|
a|------------------------------------------------------------------------|
E|------------------------------------------------------------------------|
( listen to the song and hear how much times, it depends on how fast you play it)
( palm muted)

e|-----11------11-------11-----
b|-9------9--------9---------9-
g|-----------------------------
d|-----------------------------
a|-----------------------------





[ Tab from: http://www.guitartabs.cc/tabs/u/u2/city_of_blinding_lights_tab_ver_2.html ]
e|-11-11-11--11-11-11--11-11-11-11-11-11-11-11----11--11-11--11-11-11-11--|
b|-9--9--9--9-9-9---9-9-9--9--8--8--8--8/11--11--8--8/9--9-9-9--9--|
g|------------------------------------------------------------------------|
d|------------------------------------------------------------------------|
a|------------------------------------------------------------------------|
E|------------------------------------------------------------------------|
( same thing here) ( palm muted)


"Can you see the beauty..."
-------------------------------------------------------------------------|
-------------------------------------------------------------------------|
-------------------------------------------------------------------------|
-10------11-10----8------10------11-10----8------------------------------|
-------------------------------------------------6------6------8---------|
-------------------------------------------------------------------------|
2X



"And I miss you when..."

-9-------7-------6-------7-------6---4---6-------------------------------|
-------------------------------------------------9------7------6-------5-|
-------------------------------------------------------------------------|
-------------------------------------------------------------------------|
-------------------------------------------------------------------------|
-------------------------------------------------------------------------|
2X

"U uu uu ..."

-11-11-11-9-11-11-11-9-11-11-11-9-11-11-11-9-|
-11-11-11-9-11-11-11-9-11-11-11-9-11-11-11-9-|
---------------------------------------------|
---------------------------------------------|
---------------------------------------------|
---------------------------------------------|
( palm muted)


-9-9-9-9-11-11-11-11-13-13-13-13-9-9-9-9-----|
-9-9-9-9-9--9--9--9--9-9--9--9--9-9-9-9-----|
---------------------------------------------|
---------------------------------------------|
---------------------------------------------|
---------------------------------------------|
3X ( palm muted)








Melody :
-------------------------------------------------------------------------|
-14-----13--------9--/11--/14------13------9----------9--/11---/14-----|
-------------------------------------------------------------------------|
-------------------------------------------------------------------------|
-------------------------------------------------------------------------|
-------------------------------------------------------------------------|

-------------------------------------------------------------------------|
--13-13-------11----\---6------------------------------------------------|
-------------------------------------------------------------------------|
-------------------------------------------------------------------------|
-------------------------------------------------------------------------|
-------------------------------------------------------------------------|
2X


"Time, time..."

------------------------------|
------------------------------|
------------------------------|
------------------------------|
-10/15--10/15---10/13--10/15\-|
------------------------------|
(you can improvise here, hear it)


-11-11-11-9-11-11-11-9-11-11-11-9-11-11-11-9-|
-11-11-11-9-11-11-11-9-11-11-11-9-11-11-11-9-|
---------------------------------------------|
---------------------------------------------|
---------------------------------------------|
---------------------------------------------|
( palm muted)


-9-9-9-9-11-11-11-11-13-13-13-13-9-9-9-9-----|
-9-9-9-9-9--9--9--9--9-9--9--9--9-9-9-9-----|
---------------------------------------------|
---------------------------------------------|
---------------------------------------------|
---------------------------------------------|
6X ( palm muted)


Melody :
-------------------------------------------------------------------------|
-14-----13--------9--/11--/14------13------9----------9--/11---/14-----|
-------------------------------------------------------------------------|
-------------------------------------------------------------------------|
-------------------------------------------------------------------------|
-------------------------------------------------------------------------|

-------------------------------------------------------------------------|
--13-13-------11----\---6------------------------------------------------|
-------------------------------------------------------------------------|
-------------------------------------------------------------------------|
-------------------------------------------------------------------------|
2X


Chorus :( palm muted)
e|-11-11-11--11-11-11--11-11-11-11--11-11-11--11-11-11--11-11-11-11-------|
b|-9--9--9--9-9-9---9-9-9--9---9--9--9--9-9-9---9-9-9--9--------|
g|------------------------------------------------------------------------|
d|------------------------------------------------------------------------|
a|------------------------------------------------------------------------|
E|------------------------------------------------------------------------|
( listen to the song and hear how much times, it depends on how fast you play it)

e|-----11------11-------11-----
b|-9------9--------9---------9-
g|-----------------------------
d|-----------------------------
a|-----------------------------



e|-11-11-11--11-11-11--11-11-11-11-11-11-11-11----11--11-11--11-11-11-11--|
b|-9--9--9--9-9-9---9-9-9--9--8--8--8--8/11--11--8--8/9--9-9-9--9--|
g|------------------------------------------------------------------------|
d|------------------------------------------------------------------------|
a|------------------------------------------------------------------------|
E|------------------------------------------------------------------------|
( same thing here)

( et the end its this part and also the piano from the beginning)
Comments