U2 - City Of Blinding Lights Chords & Tabs

 

City Of Blinding Lights Chords & Tabs

U2 Chords & Tabs

Version: 1 Type: Tab 0 ratings
1 star 2 stars 3 stars 4 stars 5 stars
comments

City Of Blinding Lights Tab

   
/********************************************************************/
/*  U2 - How To Dismantle An Atomic Bomb - City Of Blinding Lights  */
/*  Solo tabs created after hearing. Feel free to send me an email  */
/*  to  if you think there are corrections                          */
/*  to be made. I belive it's pretty close to what's on the album!  */
/*                                                                  */
/*  \ means: slide down                                             */
/*  / means: slide up                                               */
/*                                                                  */
/*  Have fun playing it!                                            */
/*  F.B.                                                            */
/*                                                                  */
/*  Ps: If anyone has tabs for the background solo guitar, please   */
/*      send it to me!                                              */
/********************************************************************/

melody 1: (piano)
-18-------16-------15----------------16-------15-------------------------|
----------------------------18-------------------------18-------16-------|
-------------------------------------------------------------------------|
-------------------------------------------------------------------------|
-------------------------------------------------------------------------|
-------------------------------------------------------------------------|
4 times

melody 2:
-------------------------------------------------------------------------|
-14-----13-13-------9--/11--/14------13------9----------9--/11---/14-----|
-------------------------------------------------------------------------|
-------------------------------------------------------------------------|
-------------------------------------------------------------------------|
-------------------------------------------------------------------------|
[ Tab from: http://www.guitartabs.cc/tabs/u/u2/city_of_blinding_lights_tab.html ]
-------------------------------------------------------------------------|
--13-13-------11----\---6------------------------------------------------|
-------------------------------------------------------------------------|
-------------------------------------------------------------------------|
-------------------------------------------------------------------------|
-------------------------------------------------------------------------|
2 times

pause until:

"And I miss you when..."
melody 3:
-9-------7-------6-------7-------6---4---6-------------------------------|
-------------------------------------------------9------7------6-------5-|
-------------------------------------------------------------------------|
-------------------------------------------------------------------------|
-------------------------------------------------------------------------|
-------------------------------------------------------------------------|
2 times

"U uu uu ..."
melody 4:
---------------------------------------------|
-11-11-11-9-11-11-11-9-11-11-11-9-11-11-11-9-|
---------------------------------------------|
---------------------------------------------|
---------------------------------------------|
---------------------------------------------|

-9-9-9-9-11-11-11-11-13-13-13-13-9-9-9-9-----|
---------------------------------------------|
---------------------------------------------|
---------------------------------------------|
---------------------------------------------|
---------------------------------------------|
9 times

and then melody 2, 2 times

"Can you see the beauty..."
melody 5:
-------------------------------------------------------------------------|
-------------------------------------------------------------------------|
-------------------------------------------------------------------------|
-10------11-10----8------10------11-10----8------------------------------|
-------------------------------------------------6------6------8---------|
-------------------------------------------------------------------------|
2 times

melody 3, 2 times
melody 4, 3 times
melody 2, 2 times

"Time, time..."
melody 6:
------------------------------|
------------------------------|
------------------------------|
------------------------------|
-10/15---10/11---10/13------\-|
------------------------------|
2 times

melody 4, 5 times
melody 2, 2 times
melody 1, 4 times
Comments