U2 - City Of Blinding Lights Chords & Tabs

 

City Of Blinding Lights Chords & Tabs

U2 Chords & Tabs

Version: 1 Type: Chords 0 ratings
1 star 2 stars 3 stars 4 stars 5 stars
comments

City Of Blinding Lights Chords

   
                               Key = G#
Riff 1:

E |-------------------------------------| E
  |-------------------------------------|
  |-------------------------------------|     
  |-15-13-12-10-----13-12-10-8----------|    (4x)
  |-------------------------------------|    
e |-------------------------------------| e

Riff 2:

E |-----------------------------------------| E 
  |-----------------------------------------|
  |-----------------------------------------|
  |--------------------------------------10-|    (2x)
  |-14-13---9-11-14-13-9---9-11-14-13-11----|
e |-----------------------------------------| e

Verse:
[ Tab from: http://www.guitartabs.cc/tabs/u/u2/city_of_blinding_lights_crd.html ]
G#                            D#   
The most you see the less you know
C#
The less you find out as you go home
G#                D#              C# 
I knew much more then, then i did now,
G#               D#     C#
Neon heart, day-glow eyes, city lit by fire flys,
G#                 D#             C#         
Theyre advertising in the sky for ppl like us.

Pre-Chorus:
B       C#
And i miss you when youre not around,
B           C#
Im getting ready to leave the ground.

Chorus:
D#    C#   D#    C#
oooooooo, ooooooooo
D#              C#
oh you look so beautiful tonight
G#
   (play riff1 1x now) In the city of blinding lights.  


Verse 2 (exactly like verse 1)
Dontlook before you laugh,
Look ugly in a photograph,
etc........

Bridge:
 (you have to slide your finger all the way up and down w/o taking it off)
G |--9---5---7---|

Outro:
Play Riff1 during outro.
Comments