U2 - City Of Blinding Lights Chords & Tabs

 

City Of Blinding Lights Chords & Tabs

U2 Chords & Tabs

Version: 2 Type: Bass Tab 0 ratings
1 star 2 stars 3 stars 4 stars 5 stars
comments

City Of Blinding Lights Bass Tab

   
Artist: U2
Song: City of blinding lights
Tabbed by: Timothy Morrison
E-mail: bass_bassist@hotmail.com
Tuning: G, D, A, E

***************************************************************************

Intro:
|---|-------|-----|-------|-----------------------|-----------------|
|-6-|-8-\-3-|-5-6-|-8-\-3-|-6-8---3-3-3-3-3-3-3-3-|-3-3-3-3-3-3-3-3-|
|---|-------|-----|-------|-----------------------|-----------------|
|---|-------|-----|-------|-----------------------|-----------------|

|-----------------|---------------------------|-----------------|-----------------------------------|
|-6-6-6-6-6-6-6-6-|-/-13-13-13-13-13-13-13-13-|-11-11-11-11-11-11-11-11-|11-11-11-11-11-11-11-11-\--|
|-----------------|---------------------------|-----------------|-----------------------------------|
|-----------------|---------------------------|-----------------|-----------------------------------|

|-----------------|----------------|-----------------|-----------------|
|-6-6-6-6-6-6-6-6-|8-8-8-8-8-8-8-8-|-----------------|-----------------|
|-----------------|----------------|-8-8-8-8-8-8-8-8-|-8-8-8-8-8-8-8-8-|
|-----------------|----------------|-----------------|-----------------|

|-----------------|-----------------------|-----------------|------------------------------------|
|-6-6-6-6-6-6-6-6-|-8-8-8-8-/-13-13-13-13-|-11-11-11-11-11-11-11-11-|-11-11-11-11-11-11-11-11-\--|
|-----------------|-----------------------|-----------------|------------------------------------|
|-----------------|-----------------------|-----------------|------------------------------------|

|-----------------|----------------|-----------------|-----------------|
|-6-6-6-6-6-6-6-6-|8-8-8-8-8-8-8-8-|-----------------|-----------------|
|-----------------|----------------|-8-8-8-8-8-8-8-8-|-8-8-8-8-8-8-8-8-|
|-----------------|----------------|-----------------|-----------------|

|-----------------|---------------------------|-----------------|-------------------------------------|
|-6-6-6-6-6-6-6-6-|-/-13-13-13-13-13-13-13-13-|-11-11-11-11-11-11-11-11-|11-11-11-11-11-11-11-11-\-6--|
|-----------------|---------------------------|-----------------|-------------------------------------|
|-----------------|---------------------------|-----------------|-------------------------------------|

Verse 1:
|-----------------|-------------------|-----------------|-----------------|
|-6-6-6-6-6-6-6-6-|-8-8-8-8-----------|-----------------|-----------------|
|-----------------|---------8-8-8-8-\-|-4-4-4-4-4-4-4-4-|-4-4-4-4-6-6-6-6-|
|-----------------|-------------------|-----------------|-----------------| 4X

Pre-chorus:
|-----------------|-----------------|-----------------|-----------------|
|-----------------|-----------------|-----------------|-----------------|
|-2-2-2-2-2-2-2-2-|-2-2-2-2-2-2-2-2-|-4-4-4-4-4-4-4-4-|-4-4-4-4-4-4-4-6-|
|-----------------|-----------------|-----------------|-----------------|

|-----------------|-----------------|-----------------|-----------------|
|-----------------|-----------------|-----------------|-----------------|
|-2-2-2-2-2-2-2-2-|-2-2-2-2-2-2-2-2-|-4-4-4-4-4-4-4-4-|-4-4-4-4-4-4-4-4-|
|-----------------|-----------------|-----------------|-----------------|

Chorus:
|-----------------|-------------------------|-----------------|-----------------|
|-----------------|-------------------------|-----------------|-----------------|
|-6-6-6-6-8-8-8-8-|-10-10-10-10-11-11-11-11-|-4-4-4-4-6-6-6-6-|-8-8-8-8-4-4-4-4-|
|-----------------|-------------------------|-----------------|-----------------| 3X

|-----------------|----------------|-----------------|-----------------|
|-6-6-6-6-6-6-6-6-|8-8-8-8-8-8-8-8-|-----------------|-----------------|
|-----------------|----------------|-8-8-8-8-8-8-8-8-|-8-8-8-8-8-8-8-8-|
|-----------------|----------------|-----------------|-----------------|

|-----------------|---------------------------|-----------------|-------------------------------------|
|-6-6-6-6-6-6-6-6-|-/-13-13-13-13-13-13-13-13-|-11-11-11-11-11-11-11-11-|11-11-11-11-11-11-11-11-\-6--|
|-----------------|---------------------------|-----------------|-------------------------------------|
|-----------------|---------------------------|-----------------|-------------------------------------|
[ Tab from: http://www.guitartabs.cc/tabs/u/u2/city_of_blinding_lights_btab_ver_2.html ]
Verse 2:
|-----------------|-------------------|-----------------|-----------------|
|-6-6-6-6-6-6-6-6-|-8-8-8-8-----------|-----------------|-----------------|
|-----------------|---------8-8-8-8-\-|-4-4-4-4-4-4-4-4-|-4-4-4-4-6-6-6-6-|
|-----------------|-------------------|-----------------|-----------------| 5X

Pre-chorus:
|-----------------|-----------------|-----------------|-----------------|
|-----------------|-----------------|-----------------|-----------------|
|-2-2-2-2-2-2-2-2-|-2-2-2-2-2-2-2-2-|-4-4-4-4-4-4-4-4-|-4-4-4-4-4-4-4-4-|
|-----------------|-----------------|-----------------|-----------------| 2X

Chorus:
|-----------------|-------------------------|-----------------|-----------------|
|-----------------|-------------------------|-----------------|-----------------|
|-6-6-6-6-8-8-8-8-|-10-10-10-10-11-11-11-11-|-4-4-4-4-6-6-6-6-|-8-8-8-8-4-4-4-4-|
|-----------------|-------------------------|-----------------|-----------------| 3X

|-----------------|----------------|-----------------|-----------------|
|-6-6-6-6-6-6-6-6-|8-8-8-8-8-8-8-8-|-----------------|-----------------|
|-----------------|----------------|-8-8-8-8-8-8-8-8-|-8-8-8-8-8-8-8-8-|
|-----------------|----------------|-----------------|-----------------|

|-----------------|---------------------------|-----------------|---------------------------------|
|-6-6-6-6-6-6-6-6-|-/-13-13-13-13-13-13-13-13-|-11-11-11-11-11-11-11-11-|11-11-11-11-11-11-11-11--|
|-----------------|---------------------------|-----------------|---------------------------------|
|-----------------|---------------------------|-----------------|---------------------------------|

Bridge:
|-----------------|
|-----------------|
|-----------------|
|-6-6-6-6-6-6-\-1-| 4X

Chorus:
|-----------------|-------------------------|-----------------|-----------------|
|-----------------|-------------------------|-----------------|-----------------|
|-6-6-6-6-8-8-8-8-|-10-10-10-10-11-11-11-11-|-4-4-4-4-6-6-6-6-|-8-8-8-8-4-4-4-4-|
|-----------------|-------------------------|-----------------|-----------------| 5X

|-----------------|----------------|-----------------|-----------------|
|-6-6-6-6-6-6-6-6-|8-8-8-8-8-8-8-8-|-----------------|-----------------|
|-----------------|----------------|-8-8-8-8-8-8-8-8-|-8-8-8-8-8-8-8-8-|
|-----------------|----------------|-----------------|-----------------|

|-----------------|---------------------------|-----------------|-------------------------------------|
|-6-6-6-6-6-6-6-6-|-/-13-13-13-13-13-13-13-13-|-11-11-11-11-11-11-11-11-|11-11-11-11-11-11-11-11-\-6--|
|-----------------|---------------------------|-----------------|-------------------------------------|
|-----------------|---------------------------|-----------------|-------------------------------------|

Verse 3 + Outro:
|-----------------|----------------|-----------------|-----------------|
|-6-6-6-6-6-6-6-6-|8-8-8-8-8-8-8-8-|-----------------|-----------------|
|-----------------|----------------|-8-8-8-8-8-8-8-8-|-8-8-8-8-8-8-8-8-|
|-----------------|----------------|-----------------|-----------------|

|-----------------|---------------------------|-----------------|-------------------------------------|
|-6-6-6-6-6-6-6-6-|-/-13-13-13-13-13-13-13-13-|-11-11-11-11-11-11-11-11-|11-11-11-11-11-11-11-11-\-6--|
|-----------------|---------------------------|-----------------|-------------------------------------|
|-----------------|---------------------------|-----------------|-------------------------------------|

|-----------------|-------------------|-----------------|-----------------|
|-6-6-6-6-6-6-6-6-|-8-8-8-8-----------|-----------------|-----------------|
|-----------------|---------8-8-8-8-\-|-4-4-4-4-4-4-4-4-|-4-4-4-4-6-6-6-6-|
|-----------------|-------------------|-----------------|-----------------| 2X

|-----------------|-----------------|-----------------|-----------------|
|-----------------|-----------------|-----------------|-----------------|
|---------6-------|-----------------|-----------6-----|-----------------|
|-4-4-4-4---4-4-4-|-4-4-4-4-4-4-4-4-|-4-4-4-4-4---4-4-|-4-4-4-4-4-4-4-4-|

|-----------------|-----------------|-------|
|-----------------|-----------------|-------|
|-----------------|-----------------|-------|
|-4-4-4-4-4-4---4-|-4-4-4-4-4-4-4-4-|-4..---|
Comments