U2 - City Of Blinding Lights Chords & Tabs

 

City Of Blinding Lights Chords & Tabs

U2 Chords & Tabs

Version: 1 Type: Bass Tab 0 ratings
1 star 2 stars 3 stars 4 stars 5 stars
comments

City Of Blinding Lights Bass Tab

   
Intro Prt. 1: (bass enters at 0:22)
G---------------------------------------------------------------------------------|
D---------------------------------------------------------------------------------|
A-12-12-12-12-12-12-12-12-14-14-14-14-14-14-14-14-9-9-9-9-9-9-9-9-9-9-9-9-9-9-9-9-|
E---------------------------------------------------------------------------------|
(Play that 3 times and on the fourth time when the drums come in, play this:)

G-------------------------------------------------|
D-------------------------------------------------|
A-12-12-12-12-12-12-12-12-19-19-19-19-19-19-19-19-|
E-------------------------------------------------|

G-------------------------------------------------|
D-------------------------------------------------|
A-17-17-17-17-17-17-17-17-17-17-17-17-17-17-17-17-|
E-------------------------------------------------|

Intro Prt. 2: 0:50
G-------------------------------------------------|
D-------------------------------------------------|
A-12-12-12-12-12-12-12-12-14-14-14-14-14-14-14-14-|
E-------------------------------------------------|

G---------------------------------|
D---------------------------------|
A-9-9-9-9-9-9-9-9-9-9-9-9-9-9-9-9-|
E---------------------------------|

G-------------------------------------------------|
D-------------------------------------------------|
A-12-12-12-12-12-12-12-12-14-14-14-14-19-19-19-19-|
E-------------------------------------------------|

G-------------------------------------------------|
D-------------------------------------------------|
A-17-17-17-17-17-17-17-17-17-17-17-17-17-17-17-17-|
E-------------------------------------------------|
(Play this whole riff twice)

Verse: 1:18
G---------------------------------------------|
D---------------------------------------------|
A-12-12-12-12-12-12-12-12-14-14-14-14-9-9-9-9-|
E---------------------------------------------|

G---------------------------------| (Play this riff 4 times)
D---------------------------------|
A-5-5-5-5-5-5-5-5-5-5-5-5-7-7-7-7-|
E---------------------------------|
[ Tab from: http://www.guitartabs.cc/tabs/u/u2/city_of_blinding_lights_btab.html ]
Pre-Chorus: 1:45
G-----------------------------------------------------------------|
D-----------------------------------------------------------------|
A-3-3-3-3-3-3-3-3-3-3-3-3-3-3-3-3-5-5-5-5-5-5-5-5-5-5-5-5-5-5-5-5-|
E-----------------------------------------------------------------|
(Play this riff twice)

Chorus: 2:00
G-------------------------------------------------------------------------|
D-------------------------------------------------------------------------|
A-7-7-7-7-9-9-9-9-11-11-11-11-12-12-12-12-5-5-5-5-7-7-7-7-9-9-9-9-5-5-5-5-|
E-------------------------------------------------------------------------|
(Play this riff 3 times and on the fourth, play this:)

G-------------------------------------------------|
D-------------------------------------------------|
A-12-12-12-12-12-12-12-12-14-14-14-14-14-14-14-14-|
E-------------------------------------------------|

G---------------------------------|
D---------------------------------|
A-9-9-9-9-9-9-9-9-9-9-9-9-9-9-9-9-|
E---------------------------------|

G-------------------------------------------------|
D-------------------------------------------------|
A-12-12-12-12-12-12-12-12-14-14-14-14-19-19-19-19-|
E-------------------------------------------------|

G-------------------------------------------------|
D-------------------------------------------------|
A-17-17-17-17-17-17-17-17-17-17-17-17-17-17-17-17-|
E-------------------------------------------------|

(Verse X5) 2:34

(Pre-Chorus) 3:08

(Chorus) 3:22

Interlude: 3:55
G-------------------------------------------------------------|
D-------------------------------------------------------------|
A-2--0--2--------2--0--2--------2--0--2--------2--0--2--------|
E-------------------------------------------------------------|

(Chorus, play first part 5 times) 4:10

Last Verse: 4:59
G---------------------------------------------|
D---------------------------------------------|
A-12-12-12-12-12-12-12-12-14-14-14-14-9-9-9-9-|
E---------------------------------------------|

G---------------------------------| (Play this riff 2 times)
D---------------------------------|
A-5-5-5-5-5-5-5-5-5-5-5-5-7-7-7-7-|
E---------------------------------|

Outro: 5:12
G---------------------------------------------------------------------------------|
D---------------------------------------------------------------------------------|
A-12-12-12-12-12-12-12-12-14-14-14-14-14-14-14-14-9-9-9-9-9-9-9-9-9-9-9-9-9-9-9-9-|
E---------------------------------------------------------------------------------|
(Play thsi riff 2 times)

Song Ends.
Comments