U2 - Bullet The Blue Sky Chords & Tabs

 

Bullet The Blue Sky Chords & Tabs

U2 Chords & Tabs

Version: 1 Type: Bass Tab 0 ratings
1 star 2 stars 3 stars 4 stars 5 stars
comments

Bullet The Blue Sky Bass Tab

   
U2 "Bullet The Blue Sky" - BASS TAB
-----------------------------------
steve palmer am560@freenet.carleton.ca

Tune down 1/2 step: Eb Ab Db Gb 
(note, tuning is from live performance - not album)

Main riff: (verse, chorus)
  Em                 D       Em                 D 
|-------------------------|-----------------------------|
|-------------------------|-----------------------------|
|----7-7-7-5-7----0--5-5--|-----7-7-7-5-7----0--5-5-----|
|-0-------------0---------|--0-------------0------------|
(on the album, this is repeated for the whole song)

[ Tab from: http://www.guitartabs.cc/tabs/u/u2/bullet_the_blue_sky_btab.html ]
Solo: (live only)
*1st few bars of solo are the main riff, then bass switches to this:

   Em                  D                   A
|-------------------|-------------------|----------------------|
|-------------------|-------------------|----------------------|
|--7-7-7-7-7-7-7-7--|--5-5-5-5-5-5-5-5--|--0-0-0-0-0-0-0-0-----|
|-------------------|-------------------|----------------------|

  A*
|-------------------|
|-7-5---------------|
|------7-5----------|
|-----------7-5-----|

*This last 'A' changes everytime, and it's hard to tell what he's
playing, Adam seems to just jam on these frets:

|-(5)-(7)-(9)---------|
|-(5)-(7)-------------|
|-(5)-(7)-------------|
|-(5)-(7)-------------|


Comments