U2 - Beautiful Day Chords & Tabs

 

Beautiful Day Chords & Tabs

U2 Chords & Tabs

Version: 1 Type: Bass Tab 0 ratings
1 star 2 stars 3 stars 4 stars 5 stars
comments

Beautiful Day Bass Tab

   
U2-"Beautiful Day"
from the album "All that You Can't Leave Behind" 
Bass Tab by Dan @ Meatspace@hotmail.com (Join the BassTabArchive Tabbing Army!)



Main Riff:
G|-------------------|---------------|------------------------|
D|-7-7-7-9-9-9-12-12-|-12\5-5-5-5-5-5/12-12-12-12-12-12-------|  
A|-------------------|---------------|------------------12-12-|  
E|-------------------|---------------|------------------------|  
   1 + 2 + 3 +  4  +   1  2 + 3 + 4 +  1  +  2  +  3  +  4  +  

G|--------------------------|
D|-------------------------*| Repeat
A|-12-12-12-12-12-12-12-12-*|   14x
E|--------------------------|
    1  +  2  +  3  +  4  + 

2nd Riff:
G|-----------------|-----------------|-----------------|-----------------|
D|-----------------|-----------------|-----------------|-----------------| Repeat
A|-----------------|-----------------|-5-5-5-5-5-5-0-0-|-0-0-0-0-0-0-0-0-|   2x
E|-2-2-2-2-2-2-3-3-|-3-3-3-3-3-3-3-3-|-----------------|-----------------|

Main Riff 2x 
[ Tab from: http://www.guitartabs.cc/tabs/u/u2/beautiful_day_btab.html ]
Bridge:
G|---------|----------|---------|----------|----------|--------|
D|---------|----------|---------|----------|*---------|--------|
A|-7-------|-(7)------|-5-------|-(5)------|*---------|--------|
E|---------|----------|---------|----------|--0-------|-3------|
   1 2 3 4    1 2 3 4   1 2 3 4    1 2 3 4   1 2 3 4   1 2 3 4

G|---------|----------|---------|---------|----------------|----------------|
D|---------|---------*|---------|---------|----------------|----------------|
A|-5-------|-(5)-----*|---------|---------|-5-5-5-5-5-5-5-5\0-0-0-0-0-0-0-0-|
E|---------|----------|-0-------|-3-------|----------------|----------------|
   1 2 3 4    1 2 3 4 	1 2 3 4   1 2 3 4   1 + 2 + 3 + 4 + 1 + 2 + 3 + 4 + 

Break 

Main Riff 2x

2nd Riff 2x

Outro:
G|----------------|-----------------|-----------------|------------------|
D|----------------|-----------------|-----------------|-----------------*| Repeat
A|0-0-0-2-2-2-5-5-|-5-5-------------|-5-5-5-5-5-5-0-0-|-0-0-0-0-0-0-0-0-*|   4x
E|----------------|-----3-3-3-3-3-3-|-----------------|------------------| 

Ending:
G|------------|-------------|-----------|----------|
D|-7---9---12-|(12)-5-------|-12--------|----------|
A|------------|-------------|--------12-|(12)------|
E|------------|-------------|-----------|----------|  
   1 2 + 3 4    1   2  3  4   1 2 3  4
G|------------|-------------|-----------||
D|-7---9---12-|(12)---5-----|(5)--------||
A|------------|-------------|-----------||
E|------------|-------------|-----------||

Comments