U2 - All I Want Is You Chords & Tabs

 

All I Want Is You Chords & Tabs

U2 Chords & Tabs

Version: 2 Type: Tab 0 ratings
1 star 2 stars 3 stars 4 stars 5 stars
comments

All I Want Is You Tab

easy easy easy

verse
|---------------------------------|
|---------------------------------|
|-----------------5-----5-----5---|
|-5-----5-----5-----5-3---5-3---5-|
|---5-3---5-3---5-----------------|
|---------------------------------|play count varies listen to recording
[ Tab from: http://www.guitartabs.cc/tabs/u/u2/all_i_want_is_you_tab_ver_2.html ]
chorus
|---------------------------------|
|---------------------------------|
|-2-----2-----2---5-----5-----5---|
|---2-0---2-0---2---5-3---5-3---5-|
|---------------------------------|
|---------------------------------|twice then add a verse riff

paddyofyc3584@yahoo.com

here lies dobby, a free elf

Comments