U2 - A Sort Of Homecoming Live Chords & Tabs

 

A Sort Of Homecoming Live Chords & Tabs

U2 Chords & Tabs

Version: 1 Type: Tab 0 ratings
1 star 2 stars 3 stars 4 stars 5 stars
comments

A Sort Of Homecoming Live Tab

   
-----------------------------------------------------------------------
	            A Sort Of Homecoming (live) - U2
-----------------------------------------------------------------------
Tabbed by: John Couillard
Email: supadad915@yahoo.com				 		
Tuning: Eb

Intro/Verse: ("And you know it's time to go..")

e|-----0-----0-----------0-----0-----------0-----0----------0----0----|
B|---3-----3-----3-----3-----3-----3-----3-----3-----3----3----3----3-|
G|-4-----4-----4-----2-----2-----2-----0-----0-----0----2----2----2---|
D|--------------------------------------------------------------------|
A|--------------------------------------------------------------------|
E|--------------------------------------------------------------------|

Verse: ("Ohhhh, Ohhhh")
[ Tab from: http://www.guitartabs.cc/tabs/u/u2/a_sort_of_homecoming_live_tab.html ]
           ( 2x )                                    ( 2x)
e|--------------------------7---------- -----10---10--10-----10---10--10---|
B|.------8-----8----10---10---10-------.---7----7---7------7----7---7-----.|
G|.----7-----7-----7---7---------7---7-.-7----7----------7----7-----------.|
D|--/7-----7-----7-----------------7--- -----------------------------------|
A|-------------------------------------------------------------------------|
E|-------------------------------------------------------------------------|

Chords:
     Em	    D			
e|---0------0----|
B|---0------3----|
G|---0------2----|
D|---2------0----|
A|---------------|
E|---------------|

| /  slide up
| \  slide down
| h  hammer-on
| p  pull-off
| ~  vibrato
| +  harmonic
| x  Mute note
==========================================================
Comments