U2 - 40 Live Chords & Tabs

 

40 Live Chords & Tabs

U2 Chords & Tabs

Version: 1 Type: Bass Tab 0 ratings
1 star 2 stars 3 stars 4 stars 5 stars
comments

40 Live Bass Tab

   
Tabbed By : rif raf
e-mail: 

Tuning:1/2

intro/main rif
G|----9---9---9---7---7---7---6---6---6---7---7----------------------------|
D|-------------------------------------------------------------------------|
A|-0---0---0--------0-----------0---0-------0------------------------------|
E|-------------------------------------------------------------------------|


2em rif
G|----9---9---9---9---9---11---11---11---11---11---------------------------|
D|-------------------------------------------------------------------------|
A|-0---0---0---0---0---0----0----0----0----0-------------------------------|
E|-------------------------------------------------------------------------|
[ Tab from: http://www.guitartabs.cc/tabs/u/u2/40_live_btab.html ]
G|----9---9---9---9---9---11---11---11---14---14---------------------------|
D|-------------------------------------------------------------------------|
A|-0---O---0---0---0----0----0----O--------0-------------------------------|
E|-------------------------------------------------------------------------|

outro
G|----9---9---9---9---9---11---11---11---11---11---------------------------|
D|-------------------------------------------------------------------------|
A|-0---0---0---0---0----0----0----0----0----0------------------------------|
E|-------------------------------------------------------------------------|

G|----9---9---9---9---9---11---11---11----9---11---9-----------------------|
D|-------------------------------------------------------------------------|
A|-0---0---0---0---0---0-----0----0----0----0----0-------------------------|
E|-------------------------------------------------------------------------|

G|----9---9---9---9---9---11---11---11---14---14---------------------------|
D|-------------------------------------------------------------------------|
A|-0---0---0---0---0----0----0----0---------0------------------------------|
E|-------------------------------------------------------------------------|
Comments