Typecast - Scars Of A Failing Heart Chords & Tabs

 

Scars Of A Failing Heart Chords & Tabs

Typecast Chords & Tabs

Version: 1 Type: Tab 0 ratings
1 star 2 stars 3 stars 4 stars 5 stars
comments

Scars Of A Failing Heart Tab

   
Scars of a failing heart
Typecast

Oi! Unang tab ko to, walang magrereklamo! Ok? Paki-rate na lang poh...
tabbed by: mj08 Magpayo

INTRO:

E|----------------------|---------|
B|----------------------|---------|
G|-8-------8------------|-5----6--|
D|-8-------8/10--10/12--|-5----6--|
A|-6-------6/8----8/10--|-3----4--|
E|----------------------|---------|
   .   .   .     .        . .  . .
E|----------------------|----------|------|
B|----------------------|--------P-|------|
G|-8-------8------------|-5----6-A-|-4/8--|
D|-8-------8/10--10/12--|-5----6-U-|-6/8--|
A|-6-------6/8----8/10--|-3----4-S-|-6/6--|
E|----------------------|--------E-|------
   .   .   .     .        . .  . .

VERSE/CHORUS:

E|----------------|
B|----------------|  strum harder on chorus
G|-8---8---5---6--|
D|-8---8---5---6--|
A|-6---5---3---4--|
E|----------------|

OUTRO:

E|---------------------------------|
B|---------------------------------|
G|-5-7-8-8/10-8-7-5-7-8-8/10-8-7-3-|
D|---------------------------------|
A|---------------------------------|
E|---------------------------------|

- tapos na -
[ Tab from: http://www.guitartabs.cc/tabs/t/typecast/scars_of_a_failing_heart_tab.html ]
Sequence:
intro      
verse
chorus
intro 
verse
chorus
intro 
outro

Lyrics:
VERSE 1:
broken hopes falling away
don't you have something to say?
does it make you sleep?
emptiness of words that you've said
scars in my heart that you left
now I'm close to dying
CHORUS:
everything's failing with thoughts of you
now I'm down without knowing what's true 
with the way you look at someone else
everyone's saying just try to be strong
how I wish that I'm just being wrong
would you try to hear me out?
the mood of distraction's prevailing tonight
have you seen what's the best and what's right?
now you're gone and your on your own
the ghost of my presence is saying goodbye
and I'll die without making things right
and you're gone and I'm on my own
VERSE 2:
broken glass cut me to sleep
wounds are dissected so deep
I don't want to wake up
I need this blood to warm my hands
you don't have to understand
you just got me all wrong
-----------------------------------------------------------
Hi! sa lahat ng taga LCC-Biņan, at dun sa mga kabanda ko-BREAK THE SILENCE- Patrick
vocals), Mj(guitar)ako yan, Kenneth(guitar), Marvin(bass) at Chris(pinakamalupet na
drummer). Mabuhay ang OPM!!!

E-mail: mj_080@yahoo
contact #: 09206285554
Comments