Typecast - Out Comes The Brave Chords & Tabs

 

Out Comes The Brave Chords & Tabs

Typecast Chords & Tabs

Version: 1 Type: Tab

Out Comes The Brave Tab

submitted by:
mokushiroku (laguna hardcore!!)
d yata msyadong accurate..
1st tym ko lng gumawa ng tab ksi wala akong magawa. =)
mabuhay ang typecast.

standard tuning

intro/verse 
|----------------------------------------|
|---------------------0------------------|
|------0----------0----------------------|
|----0---0--0---0---0--------------------|
|--2-------2-2/3-------------------------|
|----------------------------------------|

CHORUS (run!!! part..)
|----------------------------------------|
|---------X------------------X-----------|
|--555555-X-55555555--222222-X-2222222---|
|--555555-X-55555555--222222-X-2222222---|
|--333333-X-33333333--000000-X-0000000---|
|----------------------------------------|
[ Tab from: http://www.guitartabs.cc/tabs/t/typecast/out_comes_the_brave_tab.html ]
bridge (ewan ko kung ilan basta kaskasin nyo lng yung octave timingan nyo n lng)
|----------------------------------------|
|----------------------------------------|
|--4~-5~------9--11-12-5~----------------|
|--x--x-------x--x--x--x-----------------|
|--2~-3~------7--9--10-3~----------------|
|----------------------------------------|

|----------------------------------------|
|----------------------------------------|
|--4--5-------9--------5-----------------|
|--x--x-------x--------x-----------------|
|--2~-3~------7~-------3~----------------|
|----------------------------------------|

outro
nkktmad din gwin bsta timingan nyo n lng yung mga break =)
|----------------------------------------|
|----------------------------------------|
|--5~x-5~-----2~x-2~---------------------|
|--5~x-5~-----2~x-2~---------------------| 
|--3~x-3~-----0~x-0~---------------------|
|----------------------------------------|

2 beses nyo gwin yung nasa taas tapos..

|----------------------------------------|
|----------------------------------------|
|--5~-x-5~----2~x-2~-2-2-2---------------|
|--5~-x-5~----2~x-2~-2-2-2---------------| 2x din to.
|--3~-x-3~----0~x-0~-0-0-0---------------|
|----------------------------------------|
                     (p.m.)

end.
kolmiralp@yahoo.com