Typecast - Last Time Chords & Tabs

 

Last Time Chords & Tabs

Typecast Chords & Tabs

Version: 4 Type: Tab 0 ratings
1 star 2 stars 3 stars 4 stars 5 stars
comments

Last Time Tab

-----------------------------------------------------------------------------
			     Last Time - Typecast
-----------------------------------------------------------------------------

Tabbed by: Jido Ramirez (coaster_char@yahoo.com)

salamat kay James Sison ng SCL sa pagturo sakin sa kantang to

Tuning:EADGBE

Intro I: (may konting effects for the end of each chord)
E|-------------------------------------------|
B|---9--10-9------9---10-9-------9---10-9----|
G|-----9-----9------9------9-------9-----9---|
D|-------------------------------------------|
A|-7-----------77-------------76-------------|
E|-------------------------------------------|

E|-------------------------------------------|
B|----9--10-9------9---10-9-------9--10-9----|
G|-----9------9------9------9------9------9--|
d|-------------------------------------------|
A|-66------------6---------------------------|
E|----------------9-----------99-------------|

E|-------------------------------------------|
B|---9--10-9-------9-------------------------|
G|----9------9-----9-------------------------|
D|-------------------------------------------|
A|-------------------------------------------|
E|-97------------7-7-------------------------|

INTRO II: 
E|-----|
B|-----|
G|--9--|
D|--9--|
A|--7--|
E|-----|
*follow nyo un drums(un snare;sa bawat palo isang strum) dun sa chord na E

/=slideup
\=slidedown
E|-------------------------------------------|
B|-------------------------------------------|
G|-9--11--13-----13/14\13--------------------|
D|-9--11--13-----13/14\13--------------------|
A|-7--9---11-----11/12\11--------------------|
E|-------------------------------------------|

INTRO I (ulit)


VERSE:
E|-----|
B|-----|
G|--9--|
D|--9--|
A|--7--|
E|-----|
HOLD THE CHORD E

*=Palm mute
E|-----------------|
B|-----------------|
G|-----------------|
D|--9--*9--*9--9---|
A|--9--*9--*9--9---|
E|--7--*7--*7--7---|


E|-------------------------------------------|
B|-------------------------------------------|
G|-9-999999--9-999999--9-999999-9-99999------|
D|-9-999999--9-999999--9-999999-9-99999------|
A|-7-777777--7-777777--6-666666-6-66666------|
E|-------------------------------------------|
[ Tab from: http://www.guitartabs.cc/tabs/t/typecast/last_time_tab_ver_4.html ]
E|-------------------------------------------|
B|-------------------------------------------|
G|-9-999999-9-999999-9-999999-9-999999-------|
D|-9-999999-9-999999-9-999999-9-999999-------|
A|-------------------------------------------|
E|-9-999999-9-999999-7-777777-7-777777-------|

Then INTRO I (again)

then VERSE

BRIDGE
E|-------------------------------------------|
B|-------------------------------------------|
G|------6---------------8--------------------|
D|--7-----77777777----9---999999999----------|
A|----7---77777777-----9--999999999----------|
E|-5------55555555---7----777777777----------|


STRUM!!
E|-------------------------------------------|
B|-9----9----9--------------9----------------|
G|-9----9----9--------------9----------------|
D|-------------------------------------------|
A|-7----6------------------------------------|
E|-----------9--------------7----------------|
			Shes leaving me

sa chorus INTRO I (2x)

INTRO II

INTERLUDE:

E|-------------------------------------------|
B|------5---/--------------------------------|
G|----6-----/--9999-999------6---------------|
D|-----6-6--/--9999-999----7--7-7--9999-999--| 2x
A|--4-------/--7777-777-----7--7---9999-999--|
E|-----------------------5---------7777-777--|

E|------------------------------------------------------------------------|
B|------------------------------------------------------------------------|
G|-666666666/999999999/111111111111111111/13-11-9-8/9-9999-9\8-8--6/8\6-6-|
D|-666666666/999999999/111111111111111111/13-11-9-8/9-9999-9\8-8--6/8\6-6-|
A|-444444444/777777777/9-9-9-9-9-9-9-9-9-/11-9--7-6/7-7777-7\6-6--4/6\4-4-|
E|------------------------------------------------------------------------|

E|----------------------------------|
B|----------------------------------|
G|-4/6\4----------------------------|
D|-4/6\4---------2--(let ring)------|
A|-2/4\2--4-(b)--2------------------|
E|--------2-------------------------|

Then INTRO I (another time)

CHORUS CHORDS

INTRO I (2x)

END
E|-----------------------------------|
B|-----------------------------------|
G|----6----------------9-------------|
D|-----7----*9999-9----9-------------|
A|------7---*9999-9----7-------------|
E|--5-------*7777-7------------------|

Thats pretty much the whole song

===============================================================================
Comments