Typecast - Last Time Chords & Tabs

 

Last Time Chords & Tabs

Typecast Chords & Tabs

Version: 3 Type: Tab 0 ratings
1 star 2 stars 3 stars 4 stars 5 stars
comments

Last Time Tab

Typecast: last time
tabbed by: Rey Ian Cabanganan (reyianc@yahoo.com)

mga tol eto na yung complete version ng last time..ako din yung gumawa 
nung version 2 kya lng hindi kumpleto yun,,eto na.

standard tuning
metal zone na effects ginamit dito.

intro:mejo mabagal lng sa part na to.
guitar 1:
E-------------------------------------------------------|
B-----9-10--9-------9-10--9------9-10--9-------9-10--9--|
G------9-----9-------9-----9-------9----9-------9-----9-|
D-------------9-------------9------------9-------------9|
A--7-------------7-------------6------------6-----------|
E-------------------------------------------------------|


E-------------------------------------------------------|
B-----9-10--9-----9-10--9--------9-10--9------9~--------|
G------9-----9-----9-----9--------9-----9-----9~--------|
D-------------9-----------9--------------9----9~--------|
A---------------------------------------------7~--------|
E--9-----------9------------7---------------------------|

guitar 1&2  eto sunod...paulit ulit lng yan..
E-------------------------------------------------------|
B-------------------------------------------------------|
G--9-0-0-9-0-0-9-0-0-9----------------------------------|
D--9-0-0-9-0-0-9-0-0-9----------------------------------|
A--7-0-0-7-0-0-7-0-0-7----------------------------------|
E----0-0---0-0---0-0------------------------------------|


guitar 2: tpos eto...
E-------------------------------------------------------|
B-------------------------------------------------------|
G--9-9-9-9--9/11--11/13--13--13/14/13-------------------|
D--x-x-x-x--x/x---x-/x---x---x-/x-/x--------------------|
A--7-7-7-7--7/9---9-/11--11--11/12/11-------------------|
E-------------------------------------------------------|
tapos intro uli...pero mabilis na ung pagkakatugtog...
paki intindi nyo nlng ah,,,

guitar 1:
E---------------------------------------------------------|
B-----9-10--9-------9-10--9------9-10--9-------9-10--9----|
G------9-----9-------9-----9-------9----9-------9-----9---|
D-------------9-------------9------------9-------------9--|
A--7-------------7-------------6------------6-------------|
E---------------------------------------------------------|

[ Tab from: http://www.guitartabs.cc/tabs/t/typecast/last_time_tab_ver_3.html ]
E----------------------------------------------------------|
B-----9-10--9-----9-10--9--------9-10--9------9~-----------|
G------9-----9-----9-----9--------9-----9-----9~-----------|
D-------------9-----------9--------------9----9~-----------|
A---------------------------------------------7~-----------|
E--9-----------9------------7------------------------------|
						 she said its over,,,,
	    both guitars:
E-----------|---------------------------------------------------|
B-----------|---------------------------------------------------|
G--9-0-0----|---9-9-9-9-9-9-9-9-9-9-9-9-9-9-9-9-9-9-9-9-9-9-9---|
D--9-0-0----|---x-x-x-x-x-x-x-x-x-x-x-x-x-x-9-9-9-9-9-9-9-9-9---|
A--7-0-0-9--|---7-7-7-7-7-7-7-7-6-6-6-6-6-6-x-x-x-x-x-x-x-x-x---|
E--------7--|-------------------------------9-9-9-9-7-7-7-7-7---|
		she said it honestly..........
 both guitars:
E------------------------------------------------------|
B------------------------------------------------------|
G------------------------------------------------------|
D--7-7-7-7-7-7-7-7--------------9-9-9-9-9-9------------|
A--7-7-7-7-7-7-7-7--------------9-9-9-9-9-9------------|
E--5-5-5-5-5-5-5-5--------------7-7-7-7-7-7------------|
   "i never take advantage.......and i dont have the guts..."
 both guitars:
E------------------------------------------------|
B------------------------------------------------|
G---------9-9-9---9-9-9--9-9-9-9-----9-9-9-9-9---|
D---------x-x-x---x-x-x--9-9-9-9-----9-9-9-9-9---|
A---------7-7-7---6-6-6--x-x-x-x-----x-x-x-x-x---|
E------------------------9-9-9-9-----7-7-7-7-7---|
          she.....drop...out.........she's leavin me...
 
 eto naman yung sa part na......"and the understanding she will never do"
 guitar 1:
e|---------------------------------------------------|
B|---------------------------------------------------|
G|---9-9-9-9-9-9-9-9-9-9-9-9-9-9-9-9-9-9-9-9-9-9-9---|
D|---x-x-x-x-x-x-x-x-x-x-x-x-x-x-9-9-9-9-9-9-9-9-9---|
A|---7-7-7-7-7-7-7-7-6-6-6-6-6-6-x-x-x-x-x-x-x-x-x---|
E|-------------------------------9-9-9-9-7-7-7-7-7---|

 guitar 2:
e|---------------------------------------------------------|
B|---------------------------------------------------------|
G|---99999/1111111111/1313131313---------------------------|
D|---xxxxx/x-x-x-x-x-/x-x-x-x-x--99999---------------------|
A|---77777/9-9-9-9-9-/1111111111-99999---------------------|
E|-------------------------------77777---------------------|
  "and the under.....            she will never do..."
   tapos balik uli sa part na "i never take advantage...."

bridge:both guitars yan.
e|----------------------------------------|
B|----------------------------------------|
G|--6666--6/9999--------------------------|
D|--xxxx--x/xxxx--------------------------|
A|--4444--4/7777--77777-7/99999-----------|
E|----------------55555-5/77777-----------|
eto naman yung para sa guitar 2: 
e|------------------------------------------------|
B|------------------------------------------------|
G|-6666-66/9-999-9/11-111111-11/13--11-9-8/99999--|
D|-xxxx-xx/x-xxx-x/x--x-x-x--x-/x---x--x-x/xxxxx--|
A|-4444-44/7-777-7/9--9-9-9--9-/11--9--7-6/66666--|
E|------------------------------------------------|

|---------------------------------------|
|-88888--6/8/6-666--4/6/4---------------|
|-xxxxx--x/x/x-xxx--x/x/x------------2--|
|-66666--4/6/4-444--2/4/2----44/6/4--2--|
|----------------------------22/4/2--0--| 


oh yan na,,

eto sa ending:
e|---------------------------|
B|---------------------------|
G|---------------------------|
D|---7777777--999999-----2~--|
A|---7777777--999999-----2~--|
E|---5555555--777777-----0~--|

yan na po mga tol...paki rate nlng...at pakiintindi..pakinggan nlng po
maiigi yung kanta para po makarelate. mga katanungan o suhestyon,,(reyianc@yahoo.com)
mabuhay typecast! at mga tambay sa villarica..! khoital reaction! ingrid ko!!
Comments