Typecast - Infatuation Is Always There Chords & Tabs

 

Infatuation Is Always There Chords & Tabs

Typecast Chords & Tabs

Version: 1 Type: Bass Tab

Infatuation Is Always There Bass Tab

Siguro may mali sa tab ko konte pero at least sumasabay sa tono ng infatuation.
Tunkol sa timing sabayan nyo lang ang beat. tapos kung asan
yung riff bumabagay dun nyo rin gamitin.

riff 1
G:------------------------------------------------------------------------|
D:------------------------------------------------------------------------|
A:--------3---2-----3-2-3--777--3-2-3-777---------------------------------|
E:--1---------------------------------------------------------------------|

riff 2
habang nag guiguitar solo ganito lang gawin ng bass.
ulitin nyo lang habang nandyan pa ang solo

G:------------------------------------------------------------------------|
D:------------------------------------------------------------------------|
A:-22---2---3----44---4---5-----------------------------------------------|
E:------------------------------------------------------------------------|
[ Tab from: http://www.guitartabs.cc/tabs/t/typecast/infatuation_is_always_there_btab.html ]
riff 3
G:------------------------------------------------------------------------|
D:------------------------------------------------------------------------|
A:--3-3-3---2-2-2---------------------------------------------------------|
E:------------------5-5-5---3-3-3-----------------------------------------|
pareha lang ito sa chorus pero mas mahina at sabayan nyo lang ang beat.
baka kulang pa ang times na gamitin nyo.

chorus:
G:------------------------------------------------------------------------|
D:------------------------------------------------------------------------|
A:--3-3-3---2-2-2---------------------------------------------------------|
E:------------------5-5-5---3-3-3-----------------------------------------|
ulitin nyo lang habang chorus pa

Thank you for using my tab.gamitin nyo lang kung kaylangan yung mga riff at
sabayan nyo lang ang beat parati.

TAB SUBMITTED BY: ADRIANE PATRICK T.
SPECIAL THANKS TO SEAN AND MY BAND.