Typecast - Ice Chords & Tabs

 

Ice Chords & Tabs

Typecast Chords & Tabs

Version: 1 Type: Tab

Ice Tab

   
Ice
By: Typecast
Tabber: Ivan Reyes (ivan_reyes128@yahoo.com)
normal tuning lang (E A D G B E)

99% sure ako sa pagkapa nito. very good song, fast pace. SUPPORT TYPECAST

Intro

e---------------|
a---------------|
d---------55-77-|
g---55-77-55-77-| (x2)
b---55-77-33-55-|
e---33-55-------|

Intro (Continued)  
[ Tab from: http://www.guitartabs.cc/tabs/t/typecast/ice_tab.html ]
    (1)        (2)
-----------|---------|
-----------|---------|
---11-10-9-|---------| (x2) sa 2nd time d n kasama ung (2)
---x--x--x-|-11-10-9-|
---10-9--7-|-x--x--x-|
-----------|-10-8--7-|
     
Verse

-----------------|
-----------------|
-----------------|
---5--9--10-12---|  
---5--9--10-12---|
---3--7--8--10---|
when can I see you again?...
               
Chorus

----------------|
----------------|
----------------|
---7--9--10-12--|   
---7--9--10-12--|
---5--7--8--10--|
   *  *  *  *
is it wrong if I tell you what I feel...

paulit ulit lang. check nyo na lang kung ilan ung bilang ng ulit sa verse, kc mgkaiba
ung bilang ng verse 1 sa verse 2 eh, pero ung chorus