Typecast - Forget Chords & Tabs

 

Forget Chords & Tabs

Typecast Chords & Tabs

Version: 2 Type: Tab

Forget Tab

forget - typecast		


intro:


E|---------------|
B|---------------|
G|---------------|
D|--5--7--3--3---|
A|--3--7--3--3---|
D|-----7--3------|


verse:


I remember how can i forget
Unpredictable but no regrets


E|---------------|
B|---------------|
G|---------------|
D|--5--7--3--3---|
A|--3--7--3--3---|
D|-----7--3------|


I'm drowning in this waters
Your hand is out there somewhere


E|---------------|
B|---------------|
G|---------------|
D|--5--7--3--10--|
A|--3--7--3--8---|
D|-----7--3------|


I guess it's time to say goodbye
Please no more lies


E|-------------------|
B|-------------------|
G|-------------------|  
D|------------5------|
A|---2--3--5----3-2--|
D|--2--3---5---------|


I've had enough of wasted time
But i don't have


E|----------------------------|
B|----------------------------|
G|----------------------------|
D|----------------------------|
A|---2--3--5--3-2---2---3--5--|
D|--2--3---5-------2---3---5--|


chorus:


I wear the costume
Of never ending shame
But somehow i feel okay

[ Tab from: http://www.guitartabs.cc/tabs/t/typecast/forget_tab_ver_2.html ]
E|---------------|
B|---------------|
G|---------------|
D|--5--7--3--3---|
A|--3--7--3--3---|
D|-----7--3------|


Help me remember to forget
I want to forget But you're 


E|---------------|
B|---------------|
G|---------------|
D|--5--7--3--10--|
A|--3--7--3--8---|
D|-----7--3------|


beautiful
And i can't stop myself
From feeling numb


E|-------------------|
B|-------------------|
G|-------------------|   
D|------------5------|
A|---2--3--5----3-2--|
D|--2--3---5---------|


Im here waiting for you


E|----------------------------|
B|----------------------------|
G|----------------------------|
D|----------------------------|
A|---2--3--5--3-2---2---3--5--|
D|--2--3---5-------2---3---5--|


To break my heart
Break my heart
Break my heart


E|---------------|
B|---------------|
G|---------------|
D|--5--7--3--3---|
A|--3--7--3--3---|
D|-----7--3------|

break my heart..

E|---------------|
B|---------------|
G|---------------|
D|--5--7--3--10--|
A|--3--7--3--8---|
D|-----7--3------|

again..


E|-----|
B|-----|
G|-----|
D|--5~-|
A|--3~-|
D|-----|



eto nga pala email add ko what_is_a@yahoo.com.. thanks! ^_^