Type O Negative - Wolf Moon Chords & Tabs

 

Wolf Moon Chords & Tabs

Type O Negative Chords & Tabs

Version: 1 Type: Tab 0 ratings
1 star 2 stars 3 stars 4 stars 5 stars
comments

Wolf Moon Tab

   
******************************************************
**       "Wolf Moon" - Type O Negative              **
**                                                  **
**      Tabbed by Gerard van de Lagemaat            **
******************************************************

Type-O tuning from low to high (B,E,A,D,F#,B)

{ Another one of my favorites, I think there are NO
  notes outside the key in this song; only 1 scale is used.}

{ Keyboard intro }
--12b-|----21----21----21----21-------21----21----21----21-|
 bend |-19----19----19----21----21h22----22----22----21----|
  1   |----------------------------------------------------|
 step |----------6----7-------9-----6----------------------|
------|--7--9----------------------------------------------|
------|-(0)------------------------------------------------|
      |                                                    |
      |----------------------------------------------------|
 bass |----------------------------------------------------|
 gtr  |---------------------7--\---------------------------|
      |-/2--------------7h9-------5--------------7b9r7-----|


{ Dist. gtr. }

{ notest in parenth.=keyb.            2nd time use lower }
      |-----------------------(17)------------(19)---------|
      |--------------(14)---------------------(17)---------|
      |/11-11-11-11-11\-6--6--6--/14-14-14-14-14\-6--6--6--|
      |/11-11-11-11-11\-6--6--6--/14-14-14-14-14\-6--6--6--|
      |/ 9--9--9--9--9\-4--4--4--/12-12-12-12-12\-4--4--4--|
      |----------------------------------------------------|
[ Tab from: http://www.guitartabs.cc/tabs/t/type_o_negative/wolf_moon_tab.html ]
{ Verse riff }
      |----------------------------------------------------|
      |----------------------------------------------------|
      |----------------------------------------------------|
      |--4--4--4--4--4--6--6--6---2--2--2--2--2---6--6--6--|
      |--4--4--4--4--4--4--4--4---0--0--0--0--0---4--4--4--|
      |-(2)(2)(2)(2)(2)------------------------------------|
         .  .  .  .  .  .  .  .   .  .  .  .  .   .  .  .

{ Pre-chorus riff }
      |                   1.3.5.7.|                    2.6.|
      |---------------------------|------------------------|
      |---------------------------|------------------------|
      |---------------------------|------------------------|
      |--4-------4----4----4----7-|--------7----7--/-9-----|
      |--4-------4----4----2----7-|--------7----7--/-7-----|
      |--2-------2----2----0----5-|--------5----5--/-7-----|
       "Unholy water..."

      |                     4.|                     8.|
      |-----------------------|-----------------------|
      |-----------------------|-----------------------|
      |-----------------------|-----------------------|
      |---------7--9--10--11--|--------7--11--10--9---|
      |---------7--9--10--11--|--------7--11--10--9---|
      |---------5--7---8---9--|--------5---9---8--7---|
{ Chorus riff }
|---------2--------------------------------------------------|
|------------------------7--------------7--------------7-----|
|-----4-----4--------9-----9--------7-----7--------6-----6---|
|---4---4-----4----9---9-----9----7---7-----7----7---7-----7-|
|-2------------/7---------------5--------------4-------------|
|------------------------------------------------------------|
"Hey wolfmoon..."


{ Clean bass interlude }
|-----------------------------------------------------------------|
|-------7-----7---------2-----2---------9-----9--------11---------|
|---------------------------------------------------------------7-|
|-5---5---5-5---5-0---0---0-0---0-7---7---7-7---7-9---9-----7h9---|
"Beware.."


{ "Howl"-riff with dist.gtr (mostly palm-muted) }
|-----------------------------------------------------------------|
|-----------------------------------------------------------------|
|-----------------------------------------------------------------|
|-7-7-7-7-7-7-7-6-6-6-6-6-6-6-6-9-9-9-9-9-9-9-9-9-9-9-9-9-9-9-9-9-|
|-7-7-7-7-7-7-7-7-7-7-7-7-7-7-7-9-9-9-9-9-9-9-9-7-7-7-7-7-7-7-7-7-|
|-5-5-5-5-5-5-5-4-4-4-4-4-4-4-4-7-7-7-7-7-7-7-7-9-9-9-9-9-9-9-9-9-|
"Beware..."



Comments