Type O Negative - Suspended In The Dark Chords & Tabs

 

Suspended In The Dark Chords & Tabs

Type O Negative Chords & Tabs

Version: 1 Type: Tab 0 ratings
1 star 2 stars 3 stars 4 stars 5 stars
comments

Suspended In The Dark Tab

   
SUSPENDED IN DUSK
Type O Negative
Off the album: Bloody Kisses
Tabbed by Dan Croy
Triplasphere@aol.com
You’ll probably need the CD for timing
Kenny uses a Fernandes Raven or Revolver, with the Sustainer to 
get the massive feedback swells...also pick scrapes are used 
with basically every slide

Tune guitar to:
B E A D F# B

INTRO
“Damn me, Father, for I must sin”
                              ^ distortion picks up

------------------------------------|-----------------------|
-9-----------------------12---7-----|---9-------------------|
------------8-------9---------------|--------------8--------|
----11---------9--------------------|-------11---------9----|
------------------------------------|-----------------------|
------------------------------------|-----------------------|

------------------------------------|---------------|
-9-----------------------12---7-----|---9-----------|
------------8-------9---------------|---------------|
----11---------9--------------------|-------11------|
------------------------------------|---------------|
------------------------------------|---------------|
[ Tab from: http://www.guitartabs.cc/tabs/t/type_o_negative/suspended_in_the_dark_tab.html ]
---------------------------------|-----------|
---------------------------------|-----------|
----------------------4----------|-----------|
-6--------4---6----2--4-------2--|--4--4--6--|
-4---X/---4---4----2------X/--2--|--2--4--4--|
-----X/-------------------X/-----|-----------|

VERSE (3x)
--------------------------|
--------------------------|
--------------------------|
-9------------------------|
-7------------------------|
-0-----------7^-----------|

then:
-------------------------------------------|-------------------|
-------------------------------------------|-------------------|
-------------------------------------------|-------------------|
-9-9-9----7--------------------------------|---------12---14^--|
-7-7-7----5-----7-7-7-----X/--11-12-11-10--|--12/7---10---12^--|
----------------5-5-5-----X/--9--10--9--8--|--10/5-------------|

CHORUS
----------------------------|-----------------------------|
----------------------------|-----------------------------|
----------------------------|-----------------------------|
-6--------------------------|-6---------------------------|
-4-----6---2--------2-4--2--|-4-----6----2--3--4--5--4--2-|
-------4---0--0--0--0-2--0--|-------4----0--1--2--3--2--0-|

----------------------------|---------------|
----------------------------|---------------|
----------------------------|---------------|
-6--------------------------|-6-----4-------|
-4-----6---2--------2-4--2--|-4-----2-----4-|
-------4---0--0--0--0-2--0--|-------------2-|

INTERLUDE
-----------|
-----------|
-11^-------|
-----------|
-----------|
-----------|

REPEAT VERSE TWICE
REPEAT CHORUS

OUTRO (with delay repeats)
-----|
-----|
-----|
-6---|
-4---|
-----|
Comments