Type O Negative - Bloody Kisses Chords & Tabs

 

Bloody Kisses Chords & Tabs

Type O Negative Chords & Tabs

Version: 1 Type: Tab 0 ratings
1 star 2 stars 3 stars 4 stars 5 stars
comments

Bloody Kisses Tab

   
T0N - BLOODY KISSES (from the album:Bloody kisses)
by:-L.H-

Dropped D-tuning (D A D g b e)

Organ intro.
then:
e-----------------------------------------------------------------|------------
b-----------------------------------------------------------------|-----------
g-----------------------------------------------------------------|------------
D-----------------------------------------------------------------|-7----5-----
A-7---7---7---7---5---5---5---5---8---8---8---8---7---5---3---5---|-7----5-----
E---7---7---7---7---5---5---5---5---7---7---7---7---7---5---3---5-|-7----5----
[ Tab from: http://www.guitartabs.cc/tabs/t/type_o_negative/bloody_kisses_tab.html ]
e------------------------------------------------------------------------------
b------------------------------------------------------------------------------
g------------------------------------------------------------------------------
D----7-------------7---0----3----3---------3--2----------------------------------
A----7-------------7---0----3----3---------3--2-------2-2-10-5------------------
E----7-------------7---0----3----3-----3-3-3--2-------2-2-10-5-------------------
 Not long ago, but far away,   A rainy   wintersday        etc...

CHORUS:
e-------------------------
b-------------------------
g-------------------------
D-9--9--9-4--4-7----------
A-9--9--9-4--4-7----------
E-9--9--9-4--4-7----------
                      Woohoh no.. p-p-please don`t go  etc...
then:
e------------------------------
b------------------------------
g------------------------------
D-9--9--7----------5----7------
A-9--9--7----6-7-6-5----7------
E-9--9--7----6-7-6-5----7------
               
SOLO (?)
e-----------------9------7-----9------------------9--9--14-13h14p13--11-9------
b----9------9--7------7-----7--------9------9--7-------------------------------
g-6-----6h8-----------------------6-----6h8-------------------------------------

e-16~------------------7---9--------------------9~~-------------------------
b------16-16--14-14--7---7--------9-------9--7--------------------------------
g------------------------------6-----6h8---------------------------------------

Kiitos -L.H-
Comments