Type O Negative - Black No 1 2 Chords & Tabs

 

Black No 1 2 Chords & Tabs

Type O Negative Chords & Tabs

Version: 1 Type: Tab 0 ratings
1 star 2 stars 3 stars 4 stars 5 stars
comments

Black No 1 2 Tab

Type O Negative
Black No.1

I didn't tab the citer part, and I've taken the solo from someone 
else's tab, but it sounds ok.
I've supplied you with the stuff you have to play, you figure out 
when to play it.

Jeroen
e-mail me at jpverbee@hotmail.com

standard tuning
*=palm mute

intro: (actually just the bass, but I also plkay this on the guitar)
|---------------------------------|--------------------------------|
|---------------------------------|--------------------------------|
|---------------------------------|--------------------------------|
|---------------------------------|--------------------------------|
|---------------------------------|---------------------5----------|
|-0-0-0-0-3-3-3-3-7-7-7-5---5-3-5-|-0-0-0-0-3-3-3-3-5-7---7-5~-----|
				  3x

riff1:
|---------------------------------|--------------------------------|
|---------------------------------|--------------------------------|
|---------------------------------|--------------------------------|
|-2-2-2-2-5-5-5-5-9-9-9-7---7-5-7-|-2-2-2-2-5-5-5-5----------------|
|-2-2-2-2-5-5-5-5-9-9-9-7---7-5-7-|-2-2-2-2-5-5-5-5-----5----------|
|-0-0-0-0-3-3-3-3-7-7-7-5---5-3-5-|-0-0-0-0-3-3-3-3-5-7---7-5~-----|
  * * * * * * * * * * *           3x* * * * * * * *

riff2:	
|-------------------------------------|----------------------------|
|-------------------------------------|----------------------------|
|-------------------------------------|----------------------------|
|-9---9---9---9---9----9----9----9----|-9---9---9------------------|
|---7---7---9---9---10---12---12---12-|---7---7---------5----------|
|-------------------------------------|-------------5-7---7-5~-----|
				      3x

riff3:
|----------------------------|---------------------------|
|----------------------------|---------------------------|
|---------2-2---6---4--2-5\4-|---------2-2---------------|
|------4--2-2---6---4--2-5\4-|------4--2-2---------------|
|------4--0-0---4---2--0-3\2-|------4--0-0-----5---------|
|-15\2-2---------------------|-15\2-2------5-7---7-5~----|
			     3x


Loving you part:
|--------------------------------|---------------------|
|--------------------------------|---------------------|
|--------------------------------|---------------------|
|-7-7-7-7-9-9-9-9-4-4-4---2-2-2--|-7----9----4---------|
|-7-7-7-7-9-9-9-9-4-4-4---2-2-2--|-7----9----4---------|
|-5-5-5-5-7-7-7-7-2-2-2---0-0-0--|-5----7----2---------|
			       repeat		     repeat

Solo rhythm figure (which is actually played a whole octave lower :-(
|-------------------------------|---------------------------------|
|-------------------------------|---------------------------------|
|-----------------------4-------|----------------------4----------|
|-------------7-7-7-4-7---7p4p0-|------------7-7-7-4-7---7b(+1/4)-|
|-2-x-x-2-5-2-------------------|2-x-x-2-5-2----------------------|
|-------------------------------|---------------------------------|


Solo:
|------------------------------------|-----------------------------------|
|------------------------------------|--------7b(8)rb(7)-----------------|
|------------------------------------|----7--------------9-7-9-----7---\-|
|---------4b(5)rb(4)-----------------|7-9---9------------------7-9---9-\-|
|-----5--------------7-5-7-----5---\-|-----------------------------------|
|-5-7---7------------------5-7---7-\-|-----------------------------------|
                                   ^- slide w/pick


Outro:
|-----------------------------------------------------|
|-----------------------------------------------------|
|-----------9-----------------------------------------|
|-2----5----9----7---------2--2---5-2--7--7--7/9\7----|
|-2----5----7----7---------2--2---5-2--7--7--7/9\7----|
|-0----3---------5---------0--0---3-0--5--5--5/7\5----|


====================================================================


Black No. 1" by Type O' Negative
Transcription by Bj"orn Winkler


Send corrections, additions etc to: bwinkler@stud.uni-frankfurt.de
Send flames to: satan@hell.com

Created with TAB MASTER by Ofir Zwebner. Check out this handy tool.
[ Tab from: http://www.guitartabs.cc/tabs/t/type_o_negative/black_no_1_2_tab.html ]
Ok, "Black No. 1" is at Nevada. So why this new version?
Well, I wanted to play this song with my band and downloaded it from
Nevada, but it did not sound right. So I sat down and
came up with this:


Riff 1:
  |-------play 3 times-----------|
e:--------------------------------|------------------------|
B:--------------------------------|------------------------|
G:--------------------------------|------------------------|
D:--------------------------------|------------------------|
A:--------------------------------|----------------2-5-1-0-|
E:0-0-0-0-3-3-3-3-7-7-7-5---5-3-5-|0-0-0-0-3-3-3-5---------|


Chorus:
  |-------play 3 times-----------|
e:--------------------------------|------------------------|
B:--------------------------------|------------------------|
G:4---4---4---4---4---4---4---4---|4---4---4---4-----------|
D:--2---2---5---5---2---7---7---7-|--2---2---5-------------|
A:--------------------------------|----------------2-5-1-0-|
E:--------------------------------|--------------5---------|


Riff 2:
  |-------play 3 times-----------|
e:--------------------------------|------------------------|
B:--------------------------------|------------------------|
G:--------------------------------|------------------------|
D:--------------------------------|------------------------|
A:2-2-2-2-5-5-5-5-9-9-9-7---7-5-7-|2-2-2-2-5-5-5---2-5-1-0-|
E:0-0-0-0-3-3-3-3-7-7-7-5---5-3-5-|0-0-0-0-3-3-3-5---------|


Bridge:
  |-------play 3 times-------------|
e:----------------------------------|------------------------|
B:----------------------------------|------------------------|
G:----------------------------------|------------------------|
D:----------------------------------|------------------------|
A:4-4-x-x-x-7-7-x-x-11-11-x-x-x-9-9-|4-4-x-x-x-7-7-----9-----|
E:2-2-x-x-x-5-5-x-x-9--9--x-x-x-7-7-|2-2-x-x-x-5-5-7-9---8-7-|


Riff 3a:
  |-------play 3 times-----------|
e:--------------------------------|------------------------|
B:--------------------------------|------------------------|
G:----------------------------4---|------------------------|
D:--------------------------2---2-|------------------------|
A:7-7-7-7-9-9-9-9-4-4-4-4-4-2-----|7-----9-----4-----------|
E:5-5-5-5-7-7-7-7-2-2-2-2-2-0-----|5-----7-----2-----------|


Riff 3b:
  |-------play 2 times--|
e:-----------------------|--------------|
B:-----------------------|--------------|
G:-----------------------|--------------|
D:-----------------------|--------------|
A:7-----9-----4----------|7-----9-----\-|
E:5-----7-----2----------|5-----7-----\-|


Solo rhythm figure (which is actually played a whole octave lower :-(

e:------------------------------|---------------------------------|
B:------------------------------|---------------------------------|
G:----------------------4-------|----------------------4----------|
D:------------7-7-7-4-7---7p4p0-|------------7-7-7-4-7---7b(+1/4)-|
A:2-x-x-2-5-2-------------------|2-x-x-2-5-2----------------------|
E:------------------------------|---------------------------------|


Solo:

e:-----------------------------------|-----------------------------------|
B:-----------------------------------|--------7b(8)rb(7)-----------------|
G:-----------------------------------|----7--------------9-7-9-----7---\-|
D:--------4b(5)rb(4)-----------------|7-9---9------------------7-9---9-\-|
A:----5--------------7-5-7-----5---\-|-----------------------------------|
E:5-7---7------------------5-7---7-\-|-----------------------------------|
                                   ^- slide w/pick

Outro:

e:--------------------|---------------|
B:--------------------|---------------|
G:--------------------|---------------|
D:--------------------|---------------|
A:2---5---9---7---5-7-|2---5-2-7------|
E:0---3---7---5---3-5-|0---3-0-5------|


The parts are played in this order:

3x Riff 1
1x Chorus
2x Riff 2
1x Bridge
1x Chorus
2x Riff 2
1x Bridge
1x Chorus
1x Keyboard Interlude
1x Riff 3a
1x Riff 3b
1x Keyboard Interlude
2x Solo rhythm figure
4x Solo rhythm figure w/keyboard solo
1x Keyboard Interlude
2x Riff 3a
1x Riff 3b
1x Riff 1
2x Chorus
1x Riff 2 w/solo
4x Outro
Comments