Type O Negative - Be My Druidess Chords & Tabs

 

Be My Druidess Chords & Tabs

Type O Negative Chords & Tabs

Version: 1 Type: Bass Tab 0 ratings
1 star 2 stars 3 stars 4 stars 5 stars
comments

Be My Druidess Bass Tab

   
Tuning: BEADG

Intro: bass w/distortion pedal
G|-------------|
D|-------------|
A|-------------|
E|-------------|
B|-7---7/127---|

Main riff:
G|--------------------------|
D|--------------------------|
A|--------------------------|
E|-7-7-----5-7-7-7-----5----|
B|-----5-7---------5-7---7--|			x 3

On fourth time play this:
G|-----------------------------|
D|-----------------------------|
A|---------------7h8p7---------|
E|-7-7-----5-7-7-------7-5-7---|
B|-----5-7---------------------|

Play the above combination x 4
[ Tab from: http://www.guitartabs.cc/tabs/t/type_o_negative/be_my_druidess_btab.html ]
Verse riff:
G|-------------------|
D|-------------------|
A|--------------5h7--|
E|--------0h5h7------|
B|-5-5--5------------|				x 3

On fourth time play this:
G|-------------------|
D|-------------------|
A|-------------------|
E|-5-5--5-------5p3--|
B|--------0h3h5------|

Play the above combination x 4

Main riff x 2

Play verse x 2

Bridge riff 1 (I'll do anything...):
G|---|
D|---|
A|---|
E|---|
B|-7-|

Hold for two measures.

Main riff x 4

Bridge riff 1:
G|---|
D|---|
A|---|
E|---|
B|-7-|

Hold for two measures, then:

Bridge riff 2:
G|---------------------------------|
D|---------------------------------|
A|---------------------------------|
E|---------------------------------|
B|-7------2-3------3-4------5-4-3--|		x 10
Comments