Type O Negative - Are You Afraid Chords & Tabs

 

Are You Afraid Chords & Tabs

Type O Negative Chords & Tabs

Version: 1 Type: Tab 0 ratings
1 star 2 stars 3 stars 4 stars 5 stars
comments

Are You Afraid Tab

   
"Are You Afraid?"
Type O Negative
Origen Of the Fecies
tabed by: Erik Tuttle (raven_575@yahoo.com)

i didnt like how previously the only tab of this song
was in D tunning so i got out the 'ol guitar and this
is what i got:

Tunning: (B E A D F# B)

Part A (Keyboard part):
b |-------------------------------------------|
F#|-------------------------------------------|
D |*--7----5----12---10---7----5-------------*|
A |*--------------------------------5--------*|
E |---5----3----10---8----5----3--------------|
B |---------------------------------3---------|
     A    G    D    C    A    G    D
[ Tab from: http://www.guitartabs.cc/tabs/t/type_o_negative/are_you_afraid_tab.html ]
Part B:			      first time second time
b |--5-5-5-5-3-3-3-3-3-3-3-3-|1-1-------|--1-1-1-1---|
F#|---3-3-3-3-1-1-1-1-3-3-3-3|-1-1---3--|---1-1-1-1--|
D |--------------------------|----------|------------|
A |--------------------------|----------|------------|
E |--------------------------|----------|------------|
B |--------------------------|----------|------------|

Part C:
b |--3-3-3-3-3-3-3-3-3-3-3-3-3-3-3-3--|
F#|--3-3-3-3-3-3-3-3-3-3-3-3-3-3-3-3--|
D |-----------------------------------|
A |-----------------------------------|
E |-----------------------------------|
B |-----------------------------------|

__Structure__ (you should know this):
Keyboard part A (A few times)
Part B          (most of the time time)
Part C		(at the end)
Comments