Tyler Hilton - Glad Acoustic Chords & Tabs

 

Glad Acoustic Chords & Tabs

Tyler Hilton Chords & Tabs

Version: 1 Type: Tab 0 ratings
1 star 2 stars 3 stars 4 stars 5 stars
comments

Glad Acoustic Tab

   
TYLER HILTON - GLAD (ACOUSTIC VERSION)

This is my first tab. I don't actually know the names on some of the chords. Sorry. In 
please e-mail me if you do!! I tabbed this mostly by ear, helped by watching a 
on the TV programme One Tree Hill, and slightly from a tab by livefromOC (so thanks
from me to him). It is not completely Tyler Hilton correct, as I added some aprts
that I prefer. This with bracketted numbers mean that I like to play the note not
in the bracket, but it may also sound good using the note in the bracket. Some parts
are labeled as needing to be fixed or are not quite right.-I jsut can't figure them
out!! Any corrective e-mail would be much appreciated. Anyways, hope you like. Please
rate this.

gizmo2501@yahoo.com

Intro
      D*   G    D*   G* G** G* C/G straight to G for verse
e|----2----3----2----0--3---0---0-------------------------------|
B|----3----3----3----3--3---3---3-------------------------------|
G|----0(2)-0----0(2)-0--0---0---0-------------------------------|
D|----0----0----0----0--0---0---2-------------------------------|
A|----0----2----0----3--3---3---3-------------------------------|
E|----3----3----3----3--3---3---0-------------------------------|

Verse

    G    A/G    Em    A
e|--3----0(3)---0----3----------------------------------------|
B|--3----3------3----2(3)-------------------------------------|
G|--0----2------0----2----------------------------------------|
D|--0----2------2----2----------------------------------------|
A|--2----0------2----0----------------------------------------|
E|--3----2------0----0----------------------------------------|


     F#   G    A/G    D    D    G   D   (Possibly the quick G*G**C/G thing   instead of 
D))
e|---3----3-----3-----3----2----3---2---------------------------|
B|---4----3-----3-----3----3----3---3---------------------------|
G|---5----0-----2-----2----2----0---3---------------------------|
D|---5----0-----2-----0----0----0---0---------------------------|
A|---3----2-----0-----0----0----2---0---------------------------|
E|---3----3-----2-----0----0----3---0---------------------------|

Chorus
    G        C    C/G (THIS NEEDS FIXING)
e|--3---7----0----3---------------------------------------|
B|--3---7----1----3---------------------------------------|
G|--4---8----0----0---------------------------------------|
D|--5---9----2----2---------------------------------------|
A|--5---9----3----3---------------------------------------|
E|--3---7----0----0---------------------------------------|

    G   D   C/G    A       G  G* G** G*  C/G straight to next verse (G)
e|--3---2----3---0---------3--0--3---0----0-------------------------|
B|--3---3----3---2---------3--3--3---3----3-------------------------|
G|--0---2----0---2---------0--0--0---0----0-------------------------|
D|--0---0----2---2---------0--0--0---0----2-------------------------|
A|--2---0----3---0---------2--3--3---3----3-------------------------|
E|--3---0----0---0---------3--3--3---3----0-------------------------|

Verse

    G    A/G    Em    A
e|--3----0(3)---0----3----------------------------------------|
B|--3----3------3----2(3)-------------------------------------|
G|--0----2------0----2----------------------------------------|
D|--0----2------2----2----------------------------------------|
A|--2----0------2----0----------------------------------------|
E|--3----2------0----0----------------------------------------|

[ Tab from: http://www.guitartabs.cc/tabs/t/tyler_hilton/glad_acoustic_tab.html ]
     F#   G    A/G    D    D    G   D   (Possibly the quick G*G**C/G thing   instead of 
D))
e|---3----3-----3-----3----2----3---2---------------------------|
B|---4----3-----3-----3----3----3---3---------------------------|
G|---5----0-----2-----2----2----0---3---------------------------|
D|---5----0-----2-----0----0----0---0---------------------------|
A|---3----2-----0-----0----0----2---0---------------------------|
E|---3----3-----2-----0----0----3---0---------------------------|


Chorus

    G        C    C/G (THIS NEEDS FIXING)
e|--3---7----0----3---------------------------------------|
B|--3---7----1----3---------------------------------------|
G|--4---8----0----0---------------------------------------|
D|--5---9----2----2---------------------------------------|
A|--5---9----3----3---------------------------------------|
E|--3---7----0----0---------------------------------------|

    G   D   C/G    D* (not quite right)
e|--3---2----3-----3---|
B|--3---3----3-----3---|
G|--0---2----0-----2---|
D|--0---0----2-----0---|
A|--2---0----3-----0---|
E|--3---0----0-----0---|

    G        C    C/G (THIS NEEDS FIXING)
e|--3---7----0----3---------------------------------------|
B|--3---7----1----3---------------------------------------|
G|--4---8----0----0---------------------------------------|
D|--5---9----2----2---------------------------------------|
A|--5---9----3----3---------------------------------------|
E|--3---7----0----0---------------------------------------|

    G   D   C/G    A       G  G* G** G*  C/G straight to next verse (G)
e|--3---2----3---0---------3--0--3---0----0-------------------------|
B|--3---3----3---2---------3--3--3---3----3-------------------------|
G|--0---2----0---2---------0--0--0---0----0-------------------------|
D|--0---0----2---2---------0--0--0---0----2-------------------------|
A|--2---0----3---0---------2--3--3---3----3-------------------------|
E|--3---0----0---0---------3--3--3---3----0-------------------------|


Bridge

      D*   G    D*   G* G** G* C/G
e|----2----3----2----0--3---0---0-------------------------------|
B|----3----3----3----3--3---3---3-------------------------------|
G|----0(2)-0----0(2)-0--0---0---0-------------------------------|
D|----0----0----0----0--0---0---2-------------------------------|
A|----0----2----0----3--3---3---3-------------------------------|
E|----3----3----3----3--3---3---0-------------------------------|

      D*   G    D*   G* G** G* C/G
e|----2----3----2----0--3---0---0-------------------------------|
B|----3----3----3----3--3---3---3-------------------------------|
G|----0(2)-0----0(2)-0--0---0---0-------------------------------|
D|----0----0----0----0--0---0---2-------------------------------|
A|----0----2----0----3--3---3---3-------------------------------|
E|----3----3----3----3--3---3---0-------------------------------|

Chorus

    G        C    C/G (THIS NEEDS FIXING)
e|--3---7----0----3---------------------------------------|
B|--3---7----1----3---------------------------------------|
G|--4---8----0----0---------------------------------------|
D|--5---9----2----2---------------------------------------|
A|--5---9----3----3---------------------------------------|
E|--3---7----0----0---------------------------------------|

    G   D   C/G    D* (not quite right)
e|--3---2----3-----3---|
B|--3---3----3-----3---|
G|--0---2----0-----2---|
D|--0---0----2-----0---|
A|--2---0----3-----0---|
E|--3---0----0-----0---|

    G        C    C/G (THIS NEEDS FIXING)
e|--3---7----0----3---------------------------------------|
B|--3---7----1----3---------------------------------------|
G|--4---8----0----0---------------------------------------|
D|--5---9----2----2---------------------------------------|
A|--5---9----3----3---------------------------------------|
E|--3---7----0----0---------------------------------------|

    G   D   C/G    A
e|--3---2----3---0----|
B|--3---3----3---2----|
G|--0---2----0---2----|
D|--0---0----2---2----|
A|--2---0----3---0----|
E|--3---0----0---0----|

Then finish in your own style.
Comments