Tyler Gilbert - Continuously Chords & Tabs

 

Continuously Chords & Tabs

Tyler Gilbert Chords & Tabs

Version: 1 Type: Tab 0 ratings
1 star 2 stars 3 stars 4 stars 5 stars
comments

Continuously Tab

   
-------------------------------------------------------------------------------
                             CONTINUOUSLY – Tyler Gilbert
-------------------------------------------------------------------------------
www.tylergilbert.ca

Tuning: E Standard

Intro: Em G C A(add9)


Em             G               C                A(add9)
Im targeting your every move but you may be two steps ahead
Em             G               C                A(add9)
I wont be your golden coin when your losing you may lose it
Em             G               C                A(add9)
You wont be the god of now your no angel your no angel
Em             G               C                A(add9)
I wont tell you every story when your not here your not here

E            G        C      A(add9)  G  D
Wanted in your conversation
E            G        C      A(add9)  G  D
Wanted in your conversation


Chorus - electric
e|---------------------------------------------------------------------------|
B|---------------------------------------------------------------------------|
G|---------------------------------------------------------------------------|
D|-2-2---------------------2-2-2-2-2-----------------------------------------|
A|-2-2------------3h5-3~~x-0-0-0-0-0-----------------------------------------|
E|-0-0-x-3h5-3~~x--------------------3-2--------------------------------------|


E            G        C      A(add9)  
Oh, continuously we are the ones that they look for
E            G        C      A(add9)  
Oh, continuously where nothings wrong
E            G        C      A(add9)  
Oh, continuously we are the ones that they look for
E            G        C      A(add9)  G  D
Oh, we burn it down

Transition - Electric
e|---------------------------------------------------------------------------|
B|---------------------------------------------------------------------------|
G|-------------------------2-2-2-2-------------------------------------------|
D|-2-2-2-2---------5-5-5-5-2-2-2-2-------------------------------------------|
A|-2-2-2-2-5-5-5-5-3-3-3-3-0-0-0-0-------------------------------------------|
E|-0-0-0-0-3-3-3-3------------------3-2---------------------------------------|


Em             G               C                A(add9)
I will trust your quiet style when your lying im deciding
Em             G               C                A(add9)
Cover up your crooked smile when your nervous you cant shake
Em             G               C                A(add9)
Tell us what your doing here your outnumbered and not welcomed
Em             G               C                A(add9)
Call it what you want by law we don’t care if we break it

Solo (Rhythm playing verse chords)
e|---------------------------------------------------------------------------|
B|---------------------------------------------------------------------------|
G|-----12-x-11-x--------------------------12-x-11-x--------------------------|
D|----------------12-x------------------------------12-x----12-14-14ph-------|
A|-x-x------------------12-14-12-14ph--x-x----------------12-----------------|
E|---------------------------------------------------------------------------|
[ Tab from: http://www.guitartabs.cc/tabs/t/tyler_gilbert/continuously_tab.html ]
e|---------------------------------------------------------------------------|
B|---------------------------------------------------------------------------|
G|-----12-x-11-x------------------12-12-x-11-x-------x-9b-9~~~---------------|
D|---------------12-x-------12-----------------11-x--------------------------|
A|-x-x----------------12-14------x-------------------------------------------|
E|---------------------------------------------------------------------------|

e|---------------------------------------------------------------------------|
B|-9p7-------7-9p7-------7-9p7-------7-9p7-------7-9ph-9ph~~-----------------|
G|-----9-7-9-------9-7-9-------9-7-9-------9-7-9-----------------------------|
D|---------------------------------------------------------------------------|
A|---------------------------------------------------------------------------|
E|---------------------------------------------------------------------------|

e|---------------------------------------------------------------------------|
B|---------------------------------------------------------------------------|
G|-14p12----------12-14p12----------12-14p12----------12-14p12---------------|
D|-------14-12-14----------14-12-14----------14-12-14----------14-12-14-12---|
A|---------------------------------------------------------------------------|
E|---------------------------------------------------------------------------|

e|---------------------------------------------------------------------------|
B|-----------13p12----12-13p12----12-13p12-15p12-13p12----12-13p12----12-----|
G|-----------------14----------14----------------------14----------14--------|
D|-14ph-14-------------------------------------------------------------------|
A|---------------------------------------------------------------------------|
E|---------------------------------------------------------------------------|

e|---------------------------------------------------------------------------|
B|-13p12----12-----------------21--------------------------------------------|
G|-------14----14ph---9phb-21b-21--------------------------------------------|
D|---------------------------------------------------------------------------|
A|---------------------------------------------------------------------------|
E|---------------------------------------------------------------------------|

Outro - Acoustic
e|---------------------------------------------------------------------------|
B|--------------------------0-------------0--------------0-------------------|
G|-----------0----------------------0-------------0--------------------------|
D|-----2--------------0---------0h2---0h2-----0h2---0h2----------------------|
A|-0h2---0h2------0h2---0h2-----0h3-----------0------------------------------|
E|-0--------------3----------------------------------------------------------|


Outro - Electric
e|---------------------------------------------------------------------------|
B|------12------10-----------------------------------------------------------|
G|----9-------9-------9-12----9-11----9----9---------------------------------|
D|-12------12------12------12------12---12-----------------------------------|
A|---------------------------------------------------------------------------|
E|---------------------------------------------------------------------------|

Outro – Electric Harmony
e|---------------------------------------------------------------------------|
B|-------15-------13-------12------------------------------------------------|
G|----12-------12-------12-------12-14----12----12---------------------------|
D|-14-------14-------14-------14-------14----14------------------------------|
A|---------------------------------------------------------------------------|
E|---------------------------------------------------------------------------|



************************************

| /   slide up
| \   slide down
| h   hammer-on
| p   pull-off
| ~   vibrato
| +   harmonic
| x   Mute note
| b   Bend
| pb  Pre-bend
| br  Bend release
| pbr Pre-bend release
| brb Bend release bend

************************************
Comments