Two Wheeled Unicycle - Googoo Chords & Tabs

 

Googoo Chords & Tabs

Two Wheeled Unicycle Chords & Tabs

Version: 1 Type: Tab 0 ratings
1 star 2 stars 3 stars 4 stars 5 stars
comments

Googoo Tab


Intro
|-------------------------------------------------|
|-------------------------------------------------|
|-------------3-------------------------333-------|x6
|--------2--------2-------------555-----333-------|
|----1----------------1---------555-----333-------|
|-0-----------------------0-----555-----333-------|


[ Tab from: http://www.guitartabs.cc/tabs/t/two_wheeled_unicycle/googoo_tab.html ]
solo
|-------------------------------------------------|
|-------------------------------------------------|
|--------------------777888222--------------------|
|---5---5---555333555777888222--------------------|
|---6---6---555333555777888-----------------------|
|---7---7---555333555777--------------------------|


ez solo
|-------------------------------------------------|
|-------------------------------------------------|
|------------------------------111----111---------|
|--3334444333334444333---------1112222111---------|
|--3334444333334444333---------1112222111---------|
|--3334444333334444333---------111----111---------|
Comments