Two Gallants - Crow Jane Chords & Tabs

 

Crow Jane Chords & Tabs

Two Gallants Chords & Tabs

Version: 2 Type: Tab 0 ratings
1 star 2 stars 3 stars 4 stars 5 stars
comments

Crow Jane Tab

   
Song: Crow Jane
Artist: Two Gallants
Tabber: Bob Carbaugh (salamand3r@hotmail.com)


In the album version, he hardly (if at all) strums.  But when he plays
it live he strums quite a bit. Sounds great either way.

Improvise a little, throw in some bends, just have a good time with it.

capo 2

e--0---------------------|
B--0h1---1---------------|
G--2---2----2----0---0-2-|
D--2---------------2-----|
A--0---------------------|
E--x---------------------|

e-------------------------------------------|
B----------------------------1----------1---|
G---------2p0---0--------2-----2----2-----2-|
D--0h1h2------2---2--------2------2---2-----|
A-------------------3b-0--------------------|
E-------------------------------------------|

e---------------------------------------------------------------|
B------------------------------------------------1----------1---|
G-----------------------------2-0---0--------2-----2----2-----2-|
D------0-------------2-0h1h2------2---2--------2------2---2-----|
A--0h3---3-0---3p0h3--------------------3b-0--------------------|
E---------------------------------------------------------------|

e---------------------|
B----------1----------|
G--1/2-1/2---2-0--0-2-|
D----------------2----|
A--0---0--------------|
E---------------------|

e------------------------------------------|
B---------------------------1----------1---|
G--------2p0---0--------2-----2----2-----2-|
D--0h1h2-----2---2--------2------2---2-----|
A------------------3b-0--------------------|
E------------------------------------------|

e--------------------------------------------------------------|
B-----------------------------------------------1----------1---|
G----------------------------2p0---0--------2-----2----2-----2-|
D------0-------------2-0h1h2-----2---2--------2------2---2-----|
A--0h3---3-0---3p0h3-------------------3b-0--------------------|
E--------------------------------------------------------------|


chords

Am[x02210]
Dm[x00231]
G [320000]
F [133211]
C/G[332010]
Em[022000]
Am/F#[2x2210]
C[x32010]
[ Tab from: http://www.guitartabs.cc/tabs/t/two_gallants/crow_jane_tab_ver_2.html ]
This is the general pattern for the verse chords, he throws in some variations.
Hammer on/off the B string.
Dm                                         Am
e---------1--------1-------1-------1-------------0-|
B-----3--------3-------3-------3-------3p1---------|
G-------2--------2-------2-------2-----------2-----|
D----------------------------------------------2---|
A---0--------0-------0-------0-------0-----0-------|
E--------------------------------------------------|


Dm 					     Dm
  well now crow jane dont make no sense to me
Am					  Am
  she left me hanging from the popper tree
G				 G
  well i never ever felt so free
Am					  Am
  look here momma what you're doing to me

  it aint no difference which way i smile

  i aint good looking from a quarter mile

  one time a woman called me angel child

  my reputation keeps me on trial

CHORUS
 F                 G           C/G
  but who's gonna save me from myself?
 F              G              C/G G F
  gotta lay the blame on someone else
 Am            G
  but somehow i aint got no hope
C/G                              F
  cause im still running from the sherrifs rope
 Am 				    G
  my shoes dont fit me cause they're filled with dope
C/G                     F
  crow jane quit me and i just cant cope

 Em			 Am
  but all i know is that i'll still run
 G			    F
  i pledge allegience to the setting sun
 Em			Am
  i must've lost cause crow jane won
 F		 Am/F#
  i'll never learn from anything i've
 C
  done
e---------------------------------0-------------------|
B-------1-------1-------1---------0h1-----1-----------|
G---0-------0-------0-------0---0-0h2-2-----2-0---0-2-|
D-----2-------2-------2-----------0h2-----------2-----|
A-3---------------3---------------0-----0-------------|
E---------3---------------3---2---0-------------------|
Comments