Two Door Cinema Club - Handshake Chords & Tabs

 

Handshake Chords & Tabs

Two Door Cinema Club Chords & Tabs

Version: 1 Type: Bass Tab 0 ratings
1 star 2 stars 3 stars 4 stars 5 stars
comments

Handshake Bass Tab

0:14-0:28
G|-----------------------------------------------------------------|
D|--666--666-------------------------------------------------------|
A|--------------------------------------888--888-------------------| x2
E|--------------888--888----666--666-------------------------------|
[ Tab from: http://www.guitartabs.cc/tabs/t/two_door_cinema_club/handshake_btab.html ]
0:29-1:27
G|-------------12-----------------------------------------------------------------|
D|-----------13-----------8--------------8-8------------6-------------------------|
A|--11-11-11---------------10---------------------8-6-8--8-6----------------------| x8
E|-------------------8-8-8----------6-6-6-----------------------------------------|

1:28-1:42
G|-----------------------------------------------------------------|
D|--666--666-------------------------------------------------------|
A|--------------------------------------888--888-------------------| x2
E|--------------888--888----666--666-------------------------------|

1:43-2:41
G|-------------12--------------------------------------------------------------|
D|-----------13-----------8--------------8-8------------6----------------------|
A|--11-11-11---------------10---------------------8-6-8--8-6-------------------| x8
E|-------------------8-8-8----------6-6-6--------------------------------------|
Comments