Two Door Cinema Club - Eat That Up Its Good For You Chords & Tabs

 

Eat That Up Its Good For You Chords & Tabs

Two Door Cinema Club Chords & Tabs

Version: 2 Type: Bass Tab 0 ratings
1 star 2 stars 3 stars 4 stars 5 stars
comments

Eat That Up Its Good For You Bass Tab

Artist: Two Door Cinema Club

Album: Tourist History

Song: Eat That Up, It's Good For You


Intro

(wait)

G||--------------------|--------------------|
D||--------------------|--------------------|
A||-8-8--8-8----8--8-8-|---8--8-8----8--8-8-|
E||--------------------|--------------------|

G||--------------------------|--------------------------|
D||--------------------------|--------------------------|
A||---10--10-10----10--10-10-|--------------------------|
E||--------------------------|---10--10-10----10--10-10-|

G||--------------------|--------------------|
D||--------------------|--------------------|
A||---8--8-8----8--8-8-|---8--8-8----8--8-8-|
E||--------------------|--------------------|

G||--------------------------|--------------------------|
D||--------------------------|--------------------------|
A||---10--10-10----10--10-10-|--------------------------|
E||--------------------------|---10--10-10----10-----10-|


Verse

G||--------------------|--------------------|
D||--------------------|--------------------|
A||---8--8-8----8--8-8-|---8--8-8----8--8-8-|
E||--------------------|--------------------|

G||--------------------|--------------------------||
D||--------------------|--------------------------||  x4
A||--------------------|---10--10-10----10-----10-||
E||---6--6-6----6--6-6-|--------------------------||


Chorus

G||----------------------|----------------------|
D||-----------10----12---|-----------10----12---|
A||-8-8----8-----8-------|-8-8----8-----8-------|
E||----------------------|----------------------|

G||-------------------------|--------------------------||
D||--------------10-----8---|--------------------------||  x2
A||-10-10----10-----10------|--------------12-----13---||
E||-------------------------|-10-10----10-----10-------||


Verse 2

G||--------------------|--------------------|
D||--------------------|--------------------|
A||---8--8-8----8--8-8-|---8--8-8----8--8-8-|
E||--------------------|--------------------|

G||--------------------|--------------------------||
D||--------------------|--------------------------||  x4
A||--------------------|---10--10-10----10-----10-||
E||---6--6-6----6--6-6-|--------------------------||


Chorus 2

G||----------------------|----------------------|
D||-----------10----12---|-----------10----12---|
A||-8-8----8-----8-------|-8-8----8-----8-------|
E||----------------------|----------------------|
[ Tab from: http://www.guitartabs.cc/tabs/t/two_door_cinema_club/eat_that_up_its_good_for_you_btab_ver_2.html ]
G||-------------------------|--------------------------||
D||--------------10-----8---|--------------------------||  x4
A||-10-10----10-----10------|--------------12-----13---||
E||-------------------------|-10-10----10-----10-------||


Outro

G||--------------------|--------------------|
D||--------------------|--------------------|
A||--------------------|--------------------|
E||-1------------------|--------------------|

G||--------------------|--------------------|
D||--------------------|--------------------|
A||--------------------|--------------------|
E||-5------------------|--------------------|

G||--------------------|--------------------|
D||--------------------|--------------------|
A||--------------------|--------------------|
E||-6------------------|-------------8--8---|

G||--------------------|--------------------|
D||--------------------|--------------------|
A||--------------------|-8----8----8----8---|
E||-1------------------|--------------------|

---

G||--------------------|----------------------|
D||--------------------|----------------------|
A||-8-8--8-8--8-8--8-8-|-8-8--8-8--10-10--8-8-|
E||--------------------|----------------------|

G||--------------------|----------------------|
D||--------------------|----------------------|
A||--------------------|----------------------|
E||-5-5--5-5--5-5--5-5-|-5-5--5-5--8-8--10-10-|

G||--------------------|----------------------|
D||--------------------|----------------------|
A||--------------------|----------------------|
E||-6-6--6-6--6-6--6-6-|-6-6--6-6--8-8--10-10-|

G||----------------------|----------------------||
D||-----------10----12---|-----------10----12---||  x2
A||-8-8--8-8-----8-------|-8-8--8-8-----8-------||
E||----------------------|----------------------||


Chorus 3

G||--------------------|----------------------|
D||--------------------|----------------------|
A||-8-8--8-8--8-8--8-8-|-8-8--8-8--10-10--8-8-|
E||--------------------|----------------------|

G||--------------------|----------------------|
D||--------------------|----------------------|
A||--------------------|----------------------|
E||-5-5--5-5--5-5--5-5-|-5-5--5-5--8-8--10-10-|

G||--------------------|----------------------|
D||--------------------|----------------------|
A||--------------------|----------------------|
E||-6-6--6-6--6-6--6-6-|-6-6--6-6--8-8--10-10-|

G||----------------------|----------------------||
D||-----------10----12---|-----------10----12---||  x2
A||-8-8--8-8-----8-------|-8-8--8-8-----8-------||
E||----------------------|----------------------||


tab by: Pedro Zappa
Comments