Two Door Cinema Club - Eat That Up Its Good For You Chords & Tabs

 

Eat That Up Its Good For You Chords & Tabs

Two Door Cinema Club Chords & Tabs

Version: 1 Type: Bass Tab 0 ratings
1 star 2 stars 3 stars 4 stars 5 stars
comments

Eat That Up Its Good For You Bass Tab

   
Tabbed by: Justin N.

This song may not be perfect, especially during the refrain, but since that's the only 
problem I've had, I'm putting up the song's tab.  If you have any corrections, contact me 
at MetallicaHERO@aol.com

Intro:(0:15-0:28)                                                       (x1)
G|-------------------------------------------------------------------------|
D|-------------------------------------------------------------------------|
A|---8888--888--888--888--101010--101010-----------------------------------|
E|----------------------------------------101010--10-10--------------------|

                                                                        (x1)
G|--------------------------------------------------------------------------|
D|--------------------------------------------------------------------------|
A|----888--888--888--888--101010--101010------------------------------------|
E|----------------------------------------101010--10-10---------------------|

Verse 1:(0:29-0:52)                                                     (x2)
G|---------------------------------------------------------------------------|
D|---------------------------------------------------------------------------|
A|-888-888-888-888-000-000-101010-10-10-888-888-888-888-000-000/101010-10-10-|
E|---------------------------------------------------------------------------|
[ Tab from: http://www.guitartabs.cc/tabs/t/two_door_cinema_club/eat_that_up_its_good_for_you_btab.html ]
Refrain: (0:53-1:05)                                                    (x2)
G|------10-----------10-----------------------------------------------------|
D|--------8-10---------8-10----------12-------------------------------------|
A|-8888---------8888---------10101010---10-12-----------12------------------|
E|---------------------------------------------10101010----101210-----------|

Verse 2:(1:06-1:30)                                                     (x2)
G|---------------------------------------------------------------------------|
D|---------------------------------------------------------------------------|
A|-888-888-888-888-000-000-101010-10-10-888-888-888-888-000-000/101010-10-10-|
E|---------------------------------------------------------------------------|

Refrain:(1:30-1:56)                                                     (x4)
G|------10-----------10-----------------------------------------------------|
D|--------8-10---------8-10----------12-------------------------------------|
A|-8888---------8888---------10101010---10-12-----------12------------------|
E|---------------------------------------------10101010----101210-----------|

Interlude:(1:57-2:08)

NO BASS

Guitar Solo:(2:09-2:20)                                                 (x1)
G|--------------------------------------------------------------------------|
D|------------------------------------------------------------------3-3-3-3-|
A|----8---------------------------------------------------------------------|
E|------------------5---------------6-------6/8--------------1--------------|

Outro:(2:21-3:10)                                                       (x4)
G|--------------------------------------------------------------------------|
D|--3333333333335533------------------------------------3---------3---------|
A|------------------00000000000033531111111111110033-----1-3-------1-3------|
E|--------------------------------------------------1111------1111----------|


And that's it. Have fun, and remember, any suggestions or corrections can just be put in 
the comments area or e-mailed to me.
Comments