Two Door Cinema Club - Cigarettes In The Theatre Chords & Tabs

 

Cigarettes In The Theatre Chords & Tabs

Two Door Cinema Club Chords & Tabs

Version: 1 Type: Bass Tab 0 ratings
1 star 2 stars 3 stars 4 stars 5 stars
comments

Cigarettes In The Theatre Bass Tab

Standard tuning


Intro 0:16
-------------------------------------------------------------|
-------------------------------------------------------------|
-------------------------------------------------------------|
-------------------------------------------------------------|  X4
-------------------------------------------------------------|
-5-5-5-5-5---15-15-12-12-----8-8-8-8-8-8--8-8-10-10----------|

0:39
----------------------------------------------------------|
----------------------------------------------------------|
----------------------------------------------------------|  X2
----------------------------------------------------------|
---------10--7---------10--7---------10--7--------10--7---|
-5-5-5-5-------8-8-8-8-------3-3-3-3-------3-3-3-3--------|

0:50
--------------------------------------------------------------|
--------------------------------------------------------------|
--------------------------------------------------------------|
--------------------------------------------------------------| X2
--------------------------------------------------------------|
-5-5-5-5-5--8-8-8-8-8-8--3-3-3-3-3-3-3--12-12-12-12-12-12-----|

1:01
---------------------------------------------------------------|
---------------------------------------------------------------|
---------------------------------------------------------------|
---------------------------------------------------------------| X2
---------------------------------------------------------------|
-12-12-12-12-12-8-8-8-8-8-8-3-3-3-3-3-3-10-10-10-10-10-10-10---|

1:24
----------------------------------------------------------|
----------------------------------------------------------|
----------------------------------------------------------|  X2
----------------------------------------------------------|
---------10--7---------10--7---------10--7--------10--7---|
-5-5-5-5-------8-8-8-8-------3-3-3-3-------3-3-3-3--------|

[ Tab from: http://www.guitartabs.cc/tabs/t/two_door_cinema_club/cigarettes_in_the_theatre_btab.html ]
1:36
--------------------------------------------------------------|
--------------------------------------------------------------|
--------------------------------------------------------------|
--------------------------------------------------------------| X2
--------------------------------------------------------------|
-5-5-5-5-5--8-8-8-8-8-8--3-3-3-3-3-3-3--12-12-12-12-12-12-----|

1:46
---------------------------------------------------------------|
---------------------------------------------------------------|
---------------------------------------------------------------|
---------------------------------------------------------------| X2
---------------------------------------------------------------|
-12-12-12-12-12-8-8-8-8-8-8-3-3-3-3-3-3-10-10-10-10-10-10-10---|

2:10
----------------------------------------------------------|
----------------------------------------------------------|
----------------------------------------------------------|  X2
----------------------------------------------------------|
---------10--7---------10--7---------10--7--------10--7---|
-5-5-5-5-------8-8-8-8-------3-3-3-3-------3-3-3-3--------|


BASS PLAYS NOTHING UP TO 2:38

-------------------------------------------------------|
-------------------------------------------------------|
-------------------------------------------------------|  X8
-------------------------------------------------------|
-------------------------------------------------------|
-8-8-8-8-8-8-8-3-3-3-3-3-3-3-3-3-----------------------|

outro
------------------------------------------------------------------|
------------------------------------------------------------------|
------------------------------------------------------------------|
------------------------------------------------------------------|
------------------------------------------------------------------|
-0-----0----------0------------0----------------------------------|
Comments