Twisted Sister - Were Not Gonna Take It Chords & Tabs

 

Were Not Gonna Take It Chords & Tabs

Twisted Sister Chords & Tabs

Version: 3 Type: Tab 0 ratings
1 star 2 stars 3 stars 4 stars 5 stars
comments

Were Not Gonna Take It Tab

Band: Twisted Sister
Song: Were Not Gunna Take It




Tuning standard (EADGBe)


Drum intro
|-----------------------|
|-----------------------|
|--9---9-8---8-6---6-4--|     
|--9---9-8---8-6---6-4--| 2x
|--7---7-6---6-4---4-2--| 
|-----------------------|

Verse
|-------------------------------------------------------------------|
|-------------------------------------------------------------------|
|------------------4-4-4-4-4-4-4-4-----------------2-2-2-2-2-2-2-2--|
|--2-2-2-2-2-2-2-2-4-4-4-4-4-4-4-4-2-2-2-2-2-2-2-2-2-2-2-2-2-2-2-2--|
|--2-2-2-2-2-2-2-2-2-2-2-2-2-2-2-2-2-2-2-2-2-2-2-2-0-0-0-0-0-0-0-0--|
|--0-0-0-0-0-0-0-0-----------------0-0-0-0-0-0-0-0------------------|
p.m...............................................................

|-----------------------------------------------------------------|
|-----------------------------------------------------------------|
|------------------4-4-4-4-4-4-4-4-----------------4-4-4-4-4-4-4--|
|--2-2-2-2-2-2-2-2-4-4-4-4-4-4-4-4-2-2-2-2-2-2-2-2-4-4-4-4-4-4-4--|
|--2-2-2-2-2-2-2-2-2-2-2-2-2-2-2-2-2-2-2-2-2-2-2-2-2-2-2-2-2-2-2--|
|--0-0-0-0-0-0-0-0-----------------0-0-0-0-0-0-0-0----------------|
p.m...............................................

|-------------------------------------------------------------------|
|-------------------------------------------------------------------|
|------------------4-4-4-4-4-4-4-4-----------------2-2-2-2-2-2-2-2--|
|--2-2-2-2-2-2-2-2-4-4-4-4-4-4-4-4-2-2-2-2-2-2-2-2-2-2-2-2-2-2-2-2--|
|--2-2-2-2-2-2-2-2-2-2-2-2-2-2-2-2-2-2-2-2-2-2-2-2-0-0-0-0-0-0-0-0--|
|--0-0-0-0-0-0-0-0-----------------0-0-0-0-0-0-0-0------------------|
p.m...............................................................

|-----------------------------------------------------------------|
|-----------------------------------------------------------------|
|------------------4-4-4-4-4-4-4-4-----------------4-4-4-4-4-4-4--|
|--2-2-2-2-2-2-2-2-4-4-4-4-4-4-4-4-2-2-2-2-2-2-2-2-4-4-4-4-4-4-4--|
|--2-2-2-2-2-2-2-2-2-2-2-2-2-2-2-2-2-2-2-2-2-2-2-2-2-2-2-2-2-2-2--|
|--0-0-0-0-0-0-0-0-----------------0-0-0-0-0-0-0-0----------------|
p.m...............................................

Chorus
|-------------------------|-----------------------|
|-------------------------|-----------------------|
|------4-------2-------4--|--9---9-8---8-6---6-4--|
|--2---4---2---2---2---4--|--9---9-8---8-6---6-4--|
|--2---2---2---0---2---2--|--7---7-6---6-4---4-2--|
|--0-------0-------0------|-----------------------|

Verse 2
|-------------------------------------------------------------------|
|-------------------------------------------------------------------|
|------------------4-4-4-4-4-4-4-4-----------------2-2-2-2-2-2-2-2--|
|--2-2-2-2-2-2-2-2-4-4-4-4-4-4-4-4-2-2-2-2-2-2-2-2-2-2-2-2-2-2-2-2--|
|--2-2-2-2-2-2-2-2-2-2-2-2-2-2-2-2-2-2-2-2-2-2-2-2-0-0-0-0-0-0-0-0--|
|--0-0-0-0-0-0-0-0-----------------0-0-0-0-0-0-0-0------------------|
p.m...............................................................

|-----------------------------------------------------------------|
|-----------------------------------------------------------------|
|------------------4-4-4-4-4-4-4-4-----------------4-4-4-4-4-4-4--|
|--2-2-2-2-2-2-2-2-4-4-4-4-4-4-4-4-2-2-2-2-2-2-2-2-4-4-4-4-4-4-4--|
|--2-2-2-2-2-2-2-2-2-2-2-2-2-2-2-2-2-2-2-2-2-2-2-2-2-2-2-2-2-2-2--|
|--0-0-0-0-0-0-0-0-----------------0-0-0-0-0-0-0-0----------------|
p.m...............................................
[ Tab from: http://www.guitartabs.cc/tabs/t/twisted_sister/were_not_gonna_take_it_tab_ver_3.html ]
|-------------------------------------------------------------------|
|-------------------------------------------------------------------|
|------------------4-4-4-4-4-4-4-4-----------------2-2-2-2-2-2-2-2--|
|--2-2-2-2-2-2-2-2-4-4-4-4-4-4-4-4-2-2-2-2-2-2-2-2-2-2-2-2-2-2-2-2--|
|--2-2-2-2-2-2-2-2-2-2-2-2-2-2-2-2-2-2-2-2-2-2-2-2-0-0-0-0-0-0-0-0--|
|--0-0-0-0-0-0-0-0-----------------0-0-0-0-0-0-0-0------------------|
p.m...............................................................

|-----------------------------------|------------------------|
|-----------------------------------|------------------------|
|------------------4-4-4-4-4-4-4-4--|--9---9-8---8-6---6-4---|
|--2-2-2-2-2-2-2-2-4-4-4-4-4-4-4-4--|--9---9-8---8-6---6-4---|
|--2-2-2-2-2-2-2-2-2-2-2-2-2-2-2-2--|--7---7-6---6-4---4-2---|
|--0-0-0-0-0-0-0-0------------------|------------------------|
p.m...............................

Bridge x2

|---------------------------------|---------------------|------------------|
|---------------------------------|---------------------|------------------|
|--7-7-7-7-6-6-6-6-4-4-4-4-4-4-4--|--9-9---10-10--11-11-|--44444444444444--|
|--7-7-7-7-6-6-6-6-4-4-4-4-4-4-4--|--9-9---10-10--11-11-|--44444444444444--|
|--5-5-5-5-4-4-4-4-2-2-2-2-2-2-2--|--7-7---8--8---9--9--|--22222222222222--|
|---------------------------------|---------------------|------------------|
p.m.............................

Chorus 2
|-----------------------------|-------------------|
|-----------------------------|-------------------|
|------4-------2-------4------|--4-4-4-4-4-4-4-4--|
|--2---4---2---2---2---4---2--|--4-4-4-4-4-4-4-4--|
|--2---2---2---0---2---2---2--|--2-2-2-2-2-2-2-2--|
|--0-------0-------0-------0--|-------------------|

|-------------------------|-----------------------|
|-------------------------|-----------------------|
|------4-------2-------4--|--9---9-8---8-6---6-4--|
|--2---4---2---2---2---4--|--9---9-8---8-6---6-4--|
|--2---2---2---0---2---2--|--7---7-6---6-4---4-2--|
|--0-------0-------0------|-----------------------|

Solo

--0---2--2--4-0-2-4-5-0-4-4-2-0-2-4-0-0-0   
----0--0--0------------------------------  
-----------------------------------------
-----------------------------------------
-----------------------------------------
-----------------------------------------

7-0---2--2--4-0-2-4-5-0-4-4-2-0-2-4-000
0--0---0--0----------------------------
---------------------------------------
---------------------------------------
---------------------------------------
---------------------------------------



Bridge 2                 |-------2x----------------------|
|-----------------------|---------------------------------|
|-----------------------|---------------------------------|
|--9---9-8---8-6---6-4--|--7-7-7-7-6-6-6-6-4-4-4-4-4-4-4--|
|--9---9-8---8-6---6-4--|--7-7-7-7-6-6-6-6-4-4-4-4-4-4-4--|
|--7---7-6---6-4---4-2--|--5-5-5-5-4-4-4-4-2-2-2-2-2-2-2--|
|-----------------------|---------------------------------|
p.m.                      ...............................

|---------------------|------------------|
|---------------------|------------------|
|--9-9---10-10--11-11-|--44444444444444--|
|--9-9---10-10--11-11-|--44444444444444--|
|--7-7---8--8---9--9--|--22222222222222--|
|---------------------|------------------|


drum part


Outro              just keep playing until it fades away     
|-------------------|-----------------------------|-------------------|
|--4-4-4-4-4-4-4-4--|------4-------2-------4------|--4-4-4-4-4-4-4-4--|
|--4-4-4-4-4-4-4-4--|--2---4---2---2---2---4---2--|--4-4-4-4-4-4-4-4--|
|--2-2-2-2-2-2-2-2--|--2---2---2---0---2---2---2--|--2-2-2-2-2-2-2-2--|
|-------------------|--0-------0-------0-------0--|-------------------|
|-------------------|------------------------------|-------------------|
Comments