Twisted Sister - Under The Blade Chords & Tabs

 

Under The Blade Chords & Tabs

Twisted Sister Chords & Tabs

Version: 1 Type: Tab

Under The Blade Tab

   
Band:  Twisted Sister
Album: Under the Blade
Song:  Under the Blade(guitar solos)

Copyright (c)  (Secret) (1982)
Version 1.0 - (26/03/06)

Transcribed By: Steve
Email:          stephen.elvidge1@ntlworld.com


.  - palm mute           /  - slide up to
\  - slide down to       ~  - vibrato
h  - hammer on           b  - Bend
p  - pull off            Suffixes for bend
t  - tap                 f  - full bend    h - half bend
ph - pinched harmonic    q  - quarter bend t - tap bend
*  - see comment         ^  - Hold bend    r release bend
x  - Stuccatto           ~  - vibrato bend
,  - slight palm mute    () - ghost note, sustained note
"  - tremolo note        <> - Trill

Tunning E A D G B E
 


             h
E-----------------------------------------|
B-15b----r13-15b----r13-15b--15b--r13--\--|
G-----------------------------------------|
D-----------------------------------------|
A-----------------------------------------|
E-----------------------------------------|
    h       h   h       h   h                 ~~~        ~~~~      
E-5-8p5-------5-8p5-------5-8p5------------------------8------|
B-------8p5-8-------8p5-8-------7p5------------------5--------|
G-----------------------------------7p5-----5-7br5------------|
D---------------------------------------7p5--------7-----7-\--|
A-------------------------------------------------------------|
E-------------------------------------------------------------|

E-------------------------------------------121212121212121211/1212-\-|
B-/12/131313-12/131313-13131313131313131313-1313131313131312/131313-\-|
G-/13/141414-13/141414-14141414141414141414-1414141414141413/141414-\-|
D---------------------------------------------------------------------|
A---------------------------------------------------------------------|
E---------------------------------------------------------------------|

          h           h           h           h           h
E-----12-15p12----12-15p12----12-15p12----12-15p12----12-15p12----|
B-15b----------15----------15----------15----------15----------15-|
G-----------------------------------------------------------------|
D-----------------------------------------------------------------|
A-----------------------------------------------------------------|
E-----------------------------------------------------------------|
      h           h           h           h           h
E-12-15p12----12-15p12----12-15p12----12-15p12----12-15p12--|
B----------15----------15----------15----------15-----------|
G-----------------------------------------------------------|
D-----------------------------------------------------------|
A-----------------------------------------------------------|
E-----------------------------------------------------------|
  ~~~~~~~~~~~~~~~~~~~
E-15b15fb---------fb15\---|
B-------------------------|
G-------------------------|
D-------------------------|
A-------------------------|
E-------------------------|
[ Tab from: http://www.guitartabs.cc/tabs/t/twisted_sister/under_the_blade_tab.html ]
 
 Slower guitar solo
 With wah
  ~~~~~~~~~~~~~~~~~~~~~~~~~~~~~~~~~~~~~~~~~~~~~~~~~~~~~~~~~ph~~ph
E-------------------------------------------------------------------|
B-8b-----------------8b---rp6-8b--------------8b---rp6-8b--8b--8b-\-|
G-------------------------------------------------------------------|
D-------------------------------------------------------------------|
A-------------------------------------------------------------------|
E-------------------------------------------------------------------|
          ~~~~~~~~    ~~~~~~~~
E-----------------15--------------|
B-----13-15b--15b----15b------r\--|
G-/14-----------------------------|
D---------------------------------|
A---------------------------------|
E---------------------------------|

 Outro solos

E--------------------------------------------------------------------|
B-/12/131313-12/131313-12/131313-13-15b15b15b15brp13-15p13----13-----|
G-/13/141414-13/141414-13/141414---------------------------14----14--|
D--------------------------------------------------------------------|
A--------------------------------------------------------------------|
E--------------------------------------------------------------------|
            h        h        h        h        h        h
E-------------------------------------------------------------------|
B-----13----15p13----15p13----15p13----15p13----15p13----15p13------|
G-/14----14-------14-------14-------14-------14-------14-------14---|
D-------------------------------------------------------------------|
A-------------------------------------------------------------------|
E-------------------------------------------------------------------|
   h        h        h        h        h        h       h
E-------------------------------------------------------------------|
B-15p13----15p13----15p13----15p13----15p13----15p13----15p13-------|
G-------14-------14-------14-------14-------14-------14-------14\---|
D-------------------------------------------------------------------|
A-------------------------------------------------------------------|
E-------------------------------------------------------------------|
        h           h           h           h
E-12----15p12----12-15p12----12-15p12----12-15p12----12----12-15--|
B-------------15----------15----------15----------15----15--------|
G-----------------------------------------------------------------|
D-----------------------------------------------------------------|
A-----------------------------------------------------------------|
E-----------------------------------------------------------------|
      h                    h
E-17-20p17----20fb-----17-20p17----17---------------------------15-|
B----------17-------------------20----20b20b--15b-15b-15b-15p13----|
G------------------------------------------------------------------|
D------------------------------------------------------------------|
A------------------------------------------------------------------|
E------------------------------------------------------------------|

        h           h           h           
E----12-15p12----12-15p12----12-15p12--------------------------|
B-15----------15----------15----------15-------13-15p13----13--|
G----------------------------------------14b14b---------14-----|
D--------------------------------------------------------------|
A--------------------------------------------------------------|
E--------------------------------------------------------------|

  ~~~~  ~~~~~             ~~~~~~~~~~~~~~~~   
E-----15------------------------------------|
B-15b---pb15r15p13--------------------------|
G------------------14\12/14-------(14)----\-|
D-------------------------------------------|
A-------------------------------------------|
E-------------------------------------------|


END