Twisted Sister - The Kids Are Back Chords & Tabs

 

The Kids Are Back Chords & Tabs

Twisted Sister Chords & Tabs

Version: 1 Type: Tab 0 ratings
1 star 2 stars 3 stars 4 stars 5 stars
comments

The Kids Are Back Tab

   
Cheers to Schadi

Tuning: normal (E A D G B E)
The timing should be (almost) right(except the solo main part) !
There is also a cover from "Nashville Pussy", but they play it the same way.

Intro:
 Guitar 1
|-----------------------------------------------------------------------
|-----------------------------------------------------------------------
|-----------------------------------------------------------------------
|---5-------------------------------------------------------------3-----
|---5-------------------------------------------------------------3-----
|---3-------------------------------------------------------------1-----
|
|Guitar 2
|-----------------------------------------------------------------------
|-----------------------------------------------------------------------
|-----------------------------------------------------------------------
|-----------------------------------------------------------------------
|---5-5-5-5-5-5-5-5-5-5-5-5-5-5-5-5-5-5-5-5-5-5-5-5-5-5-5-5-5-5-5-3-----
|---3-3-3-3-3-3-3-3-3-3-3-3-3-3-3-3-3-3-3-3-3-3-3-3-3-3-3-3-3-3-3-1-----

Verse:
 Guitar 1
|-----------------------------------------------------------------------
|-----------------------------------------------------------------------
|-----------------------------------------------------------------------
|-----------------------------------------------------------------------
|---5-----------------------------5-3---------------------------3-5-----
|---3-----------------------------3-1---------------------------1-3-----
|
|Guitar 2
|-----------------------------------------------------------------------
|-----------------------------------------------------------------------
|-----------------------------------------------------------------------
|-----------------------------------------------------------------------
|---5-5-5-5-5-5-5-5-5-5-5-5-5-5-5-5-3-3-3-3-3-3-3-3-3-3-3-3-3-3-3-5-----
|---3-3-3-3-3-3-3-3-3-3-3-3-3-3-3-3-1-1-1-1-1-1-1-1-1-1-1-1-1-1-1-3-----


 Guitar 1
|-----------------------------------------------------------------------
|-----------------------------------------------------------------------
|-----------------------------------------------------------------------
|-----------------------------------------------------------------------
|---7-------------------------------5-----------------------------3-----
|---5-------------------------------3-----------------------------1-----
|
|Guitar 2
|-----------------------------------------------------------------------
|-----------------------------------------------------------------------
|-----------------------------------------------------------------------
|-----------------------------------------------------------------------
|---7-7-7-7-7-7-7-7-7-7-7-7-7-7-7-7-5-5-5-5-5-5-5-5-5-5-5-5-5-5-5-3-----
|---5-5-5-5-5-5-5-5-5-5-5-5-5-5-5-5-3-3-3-3-3-3-3-3-3-3-3-3-3-3-3-1-----


Guitar 1
|-----------------------------------------------------------------------
|-----------------------------------------------------------------------
|-----------------------------------------------------------------------
|-----------------------------------------------------------------------
|---5-----------------------------5-3---------------------------3-5-----
|---3-----------------------------3-1---------------------------1-3-----
|
|Guitar 2
|-----------------------------------------------------------------------
|-----------------------------------------------------------------------
|-----------------------------------------------------------------------
|-----------------------------------------------------------------------
|---5-5-5-5-5-5-5-5-5-5-5-5-5-5-5-5-3-3-3-3-3-3-3-3-3-3-3-3-3-3-3-5-----
|---3-3-3-3-3-3-3-3-3-3-3-3-3-3-3-3-1-1-1-1-1-1-1-1-1-1-1-1-1-1-1-3-----


Guitar 1
|-----------------------------------------------------------------------
|-----------------------------------------------------------------------
|-----------------------------------------------------------------------
|-----------------------------------------------------------------------
|---7---------------------------------5---8---8-5-----5---8---8-5-------
|---5---------------------------------3---6---6-3-----3---6---6-3-------
|
|Guitar 2
|-----------------------------------------------------------------------
|-----------------------------------------------------------------------
|-----------------------------------------------------------------------
|-----------------------------------------------------------------------
|---7-7-7-7-7-7-7-7-7-7-7-7-7-7-7-7-5-5-5-5-5-5-5-5-5-5-5-5-5-5-5-5-----
|---5-5-5-5-5-5-5-5-5-5-5-5-5-5-5-5-3-3-3-3-3-3-3-3-3-3-3-3-3-3-3-3-----


Chorus

 Guitar 1
|-----------------------------------------------------------------------
|-----------------------------------------------------------------------
|-----------------------------------------------------------------------
|-----------------------------------------------------------------------
|-----5-----------------------------------------------------------------
|-----3-----------------------------------------------------------------
|
|Guitar 2
|-----------------------------------------------------------------------
|-----------------------------------------------------------------------
|-----------------------------------------------------------------------
|-----------------------------------------------------------------------
|-----5---8---8-5-----5---8---8-5-----5---8---8-5-----5---8---8-5-------
|-----3---6---6-3-----3---6---6-3-----3---6---6-3-----3---6---6-3-------

[ Tab from: http://www.guitartabs.cc/tabs/t/twisted_sister/the_kids_are_back_tab.html ]
Guitar 1
|-----------------------------------------------------------------------
|-----------------------------------------------------------------------
|-----------------------------------------------------------------------
|-----------------------------------------------------------------------
|-----3-------------------------------5---------------------------------
|-----1-------------------------------3---------------------------------
|
|Guitar 2
|-----------------------------------------------------------------------
|-----------------------------------------------------------------------
|-----------------------------------------------------------------------
|-----------------------------------------------------------------------
|-------------------------------------5---8---8-5-----5---8---8-5-------
|-------------------------------------3---6---6-3-----3---6---6-3-------


Guitar 1
|-----------------------------------------------------------------------
|-----------------------------------------------------------------------
|-----------------------------------------------------------------------
|-----------------------------------------------------------------------
|-----8-------------------------------5---------------------------------
|-----6-------------------------------3---------------------------------
|
|Guitar 2
|-----------------------------------------------------------------------
|-----------------------------------------------------------------------
|-----------------------------------------------------------------------
|-----------------------------------------------------------------------
|-------------------------------------5---------------------------------
|-------------------------------------3---------------------------------

Bridge:

both guitars
|-----------------------------------------------------------------------
|-----------------------------------------------------------------------
|-----------------------------------------------------------------------
|-----------------------------------------------------------------------
|-----5---8---8-5-----5---8---8-5------5---8---8-5-----5---8---8-5-3----
|-----3---6---6-3-----3---6---6-3------5---8---8-5-----5---8---8-5-1----

play verse again, then chorus with bridge


Solo:

Rhythym for solo (2x)
|-----------------------------------------------------------------------
|-----------------------------------------------------------------------
|-----------------------------------------------------------------------
|-----------------------------------------------------------------------
|-----5---8---8-5-----5---8---8-5------5---8---8-5-----5---8---8-5------
|-----3---6---6-3-----3---6---6-3------5---8---8-5-----5---8---8-5------
|
|-----------------------------------------------------------------------
|-----------------------------------------------------------------------
|-----------------------------------------------------------------------
|-----------------------------------------------------------------------
|-----5---8---8-5-----5---8---8-5------5---8---8-5-----5---8---8-5------
|-----3---6---6-3-----3---6---6-3------5---8---8-5-----5---8---8-5------
|
|-----------------------------------------------------------------------
|-----------------------------------------------------------------------
|-----------------------------------------------------------------------
|-----------------------------------------------------------------------
|----3------------------------------------------------------------------
|----1------------------------------------------------------------------
|
|-----------------------------------------------------------------------
|-----------------------------------------------------------------------
|-----------------------------------------------------------------------
|-----------------------------------------------------------------------
|-----5---8---8-5-----5---8---8-5------5---8---8-5-----5---8---8-5-3----
|-----3---6---6-3-----3---6---6-3------5---8---8-5-----5---8---8-5-1----

main part (it's the way I play it)
|-----------------------------------------------------------------------
|---------------------------------------------12-10p9-------------------
|---6--8--10-10---6--8--10-12-10---6--8--10-----------12-10p9-----------
|-------------------------------------------------------------12-10p9---
|-----------------------------------------------------------------------

|-----------------------------------------------------------------------
|-----------------------------------------------------9-10-11--12-11----
|----------------------------12-12-13-12---9-10-11-12-------------------
|-----------------------------------------------------------------------
|----------------------10-----------------------------------------------
|----------12-10p9h12---------------------------------------------------

|-----------------------------------------------------------------------
|-----7h9p7---5h7p5---3h5p3-----3-3-1-----------------------------------
|--------------------------------------4b-----3-3-0-4--0h3-3-3-0-4------
|-----------------------------------------------------------------------
|-----------------------------------------------------------------------
|-----------------------------------------------------------------------

|-----------------------------------------------------------------------
|---0h3-3-3-0-4h5p4--0h3-3-3-0-4----------7s9-12p11h12p11h12p11h12p11h12
|---------------------------------4b------------------------------------
|-----------------------------------------------------------------------
|-----------------------------------------------------------------------
|-----------------------------------------------------------------------

|-----------------------------------------------------------------------
|---14p12-10p9-9p7-7p5---5s15--15--10--8--5-----------------------------
|-----------------------------------------------------------------------
|-----------------------------------------------------------------------
|-----------------------------------------------------------------------
|-----------------------------------------------------------------------

after solo play verse, chorus, bridge, chorus, bridge(3x)

h=hammer on
p=pull off
B=bend
s=slide
Comments