Twisted Sister - Shoot Em Down Chords & Tabs

 

Shoot Em Down Chords & Tabs

Twisted Sister Chords & Tabs

Version: 3 Type: Tab 0 ratings
1 star 2 stars 3 stars 4 stars 5 stars
comments

Shoot Em Down Tab

* palm mute
( ) let ring

e---------------------------------------|
b---------------------------------------|
g---------------------------------------|
d-----7-2---2--7-------7-2---2--7-------|
a--2--5-0---0--5-2--2--5-0---0--5-2-----|
E--0-------------0--0-------------0-----|

e-------------------------------------------------------|
b-------------------------------------------------------|
g-------------------------------------------------------|
d--------------7-2-----------2-----------7--------------|
a-2------------5-0-0-0-0-0-0-0-0-0-0-0-0-5-2------------|
E-0--0-0-0-0-0-----------------------------0-0-0-0-0-0--|
     * * * * *     * * * * *   * * * * *     * * * * *

e-------------------------------------------------------|
b-------------------------------------------------------|
g-------------------------------------------------------|
d--------------7-2-----------2-----------7--------------|
a-2------------5-0-0-0-0-0-0-0-0-0-0-0-0-5-2------------|
E-0--0-0-0-0-0-----------------------------0-0-0-0-0-0--|
     * * * * *     * * * * *   * * * * *     * * * * *
e-------------------------------------------------------|
b-------------------------------------------------------|
g-------------------------------------------------------|
d--------------7-2-----------2-----------7--------------|
a-2------------5-0-0-0-0-0-0-0-0-0-0-0-0-5-2------------|
E-0--0-0-0-0-0-----------------------------0-0-0-0-0-0--|
     * * * * *     * * * * *   * * * * *     * * * * *

e--------------------------------------------|
b--------------------------------------------|
g--------------------------------------------|
d--------------7-2-----------2-----------7---|
a-2------------5-0-0-0-0-0-0-0-0-0-0-0-0-5-2-|
E-0--0-0-0-0-0-----------------------------0-|
     * * * * *     * * * * *   * * * * *   

e---------------------------------------------|
b---------------------------------------------|
g---------------------------------------------|
d-7-2-7----7--2----7-2-7----7--2--2--2--2--2--|
a-5-0-5-2--5--0--2-5-0-5-2--5--0--0--0--0--0--|
E-------0--------0-------0--------------------|

e---------------------------------------|
b---------------------------------------|
g---------------------------------------|
d-----7-2---2--7-------7-2---2--7-------|
a--2--5-0---0--5-2--2--5-0---0--5-2-----|
E--0-------------0--0-------------0-----|

e-------------------------------------------------------|
b-------------------------------------------------------|
g-------------------------------------------------------|
d--------------7-2-----------2-----------7--------------|
a-2------------5-0-0-0-0-0-0-0-0-0-0-0-0-5-2------------|
E-0--0-0-0-0-0-----------------------------0-0-0-0-0-0--|
     * * * * *     * * * * *   * * * * *     * * * * *
[ Tab from: http://www.guitartabs.cc/tabs/t/twisted_sister/shoot_em_down_tab_ver_3.html ]
e--------------------------------------------|
b--------------------------------------------|
g--------------------------------------------|
d--------------7-2-----------2-----------7---|
a-2------------5-0-0-0-0-0-0-0-0-0-0-0-0-5-2-|
E-0--0-0-0-0-0-----------------------------0-|
     * * * * *     * * * * *   * * * * *   

e---------------------------------------------|
b---------------------------------------------|
g---------------------------------------------|
d-7-2-7----7--2----7-2-7----7--2--2--2--2--2--|
a-5-0-5-2--5--0--2-5-0-5-2--5--0--0--0--0--0--|
E-------0--------0-------0--------------------|

e---------------------------------------|
b---------------------------------------|
g---------------------------------------|
d-----7-2---2--7-------7-2---2--7-------|
a--2--5-0---0--5-2--2--5-0---0--5-2-----|
E--0-------------0--0-------------0-----|

e---------------------------------|
b---------------------------------|
g---------------------------------|
d--7------2----7--10-10-10-10-10--|
a--5---2--0-2--5--8--8--8--8--8---|
E------0----0---------------------|

e---------------------------------------|
b---------------------------------------|
g---------------------------------------|
d-----7-2---2--7-------7-2---2--7-------|
a--2--5-0---0--5-2--2--5-0---0--5-2-----|
E--0-------------0--0-------------0-----|

e-----------------------------------|
b-----------------------------------|
g-----------------------------------|
d-----7-2---2--7-------7-2-2-2-2-2-2|
a--2--5-0---0--5-2--2--5-0-0-0-0-0-0|
E--0-------------0--0---------------|


e-------------------------------------------------------|
b-------------------------------------------------------|
g-------------------------------------------------------|
d-----7-2---2--7-------7-2---2--7---7-2-7----7--2-------|
a--2--5-0---0--5-2--2--5-0---0--5-2-5-0-5-2--5--0--2----|
E--0-------------0--0-------------0-------0--------0----|


e------------------------|
b------------------------|
g------------------------|
d-7-2-7----7--2-2-2-2-2--|
a-5-0-5-2--5--0-0-0-0-0--|
E-------0----------------|

e---------------------------------------|
b---------------------------------------|
g---------------------------------------|
d-----7-2---2--7-------7-2---2--7-------|
a--2--5-0---0--5-2--2--5-0---0--5-2-----|
E--0-------------0--0-------------0-----|

e---------------------------------------|
b---------------------------------------|
g---------------------------------------|
d-----7-2---2--7-------7-2---2--7-------|
a--2--5-0---0--5-2--2--5-0---0--5-2-----|
E--0-------------0--0-------------0-----|

e---------------------------------------|
b---------------------------------------|
g---------------------------------------|
d-----7-2---2--7-------7-2-2-2-2-2-2(2)-|
a--2--5-0---0--5-2--2--5-0-0-0-0-0-0(0)-|
E--0-------------0--0-------------------|
Comments