Twisted Sister - I Wanna Rock Chords & Tabs

 

I Wanna Rock Chords & Tabs

Twisted Sister Chords & Tabs

Version: 4 Type: Tab 0 ratings
1 star 2 stars 3 stars 4 stars 5 stars
comments

I Wanna Rock Tab

   
    Tabber: Koner
     

      e-----------------------------------------|
      B-----------------------------------------|
      G-----------------------------------------|
      D-7--5555--------12-12-12-12------2------5|
      A-7--5555--------12-12-12-12------2------5|
      E-5--3333--------10-10-10-10------0------3|

      e-----------------------------------------|----|
      B-----------------------------------------|----|
      G---------------------------------9------5|----|
      D-7--5555--------12-12-12-12------9------5|---7|x2
      A-7--5555--------12-12-12-12------7------3|---7|
      E-5--3333--------10-10-10-10--------------|---5|  

      e-----------------------|
      B-----------------------|
      G--------------77-------|
      D---7----55----77------7|x2
      A---7----55----55------7|
      E---5----33------------5|

      e------------------------------------------------|
      B------------------------------------------------|
      G------7-------------7-7-7-7-------------55-----7|
      D--5---7---5-5-5-5---7-7-7-7---5-5-5-5---55--5--7|
      A--5---5---5-5-5-5---5-5-5-5---5-5-5-5---33--5--5|
      E--3-------3-3-3-3-------------3-3-3-3-------3---|

      e-----------------------------------------|
      B-----------------------------------------|
      G-----------------------------------------|
      D-7--5555--------12-12-12-12------2------5|
      A-7--5555--------12-12-12-12------2------5|
      E-5--3333--------10-10-10-10------0------3|

      e-----------------------------------------|----|
      B-----------------------------------------|----|
      G---------------------------------9------5|----|
      D-7--5555--------12-12-12-12------9------5|---7|x2
      A-7--5555--------12-12-12-12------7------3|---7|
      E-5--3333--------10-10-10-10--------------|---5| 
[ Tab from: http://www.guitartabs.cc/tabs/t/twisted_sister/i_wanna_rock_tab_ver_4.html ]
      e-----------------------|
      B-----------------------|
      G--------------77-------|
      D---7----55----77------7|x2
      A---7----55----55------7|
      E---5----33------------5|
    
      e------------------------------------------------|
      B------------------------------------------------|
      G------7-------------7-7-7-7-------------55-----7|
      D--5---7---5-5-5-5---7-7-7-7---5-5-5-5---55--5--7|
      A--5---5---5-5-5-5---5-5-5-5---5-5-5-5---33--5--5|
      E--3-------3-3-3-3-------------3-3-3-3-------3---|
    
      e-----------------------------------------|
      B-----------------------------------------|
      G-----------------------------------------|
      D-7--5555--------12-12-12-12------2------5|
      A-7--5555--------12-12-12-12------2------5|
      E-5--3333--------10-10-10-10------0------3|

      e-----------------------------------------|----|
      B-----------------------------------------|----|
      G---------------------------------9------5|----|
      D-7--5555--------12-12-12-12------9------5|---7|x2
      A-7--5555--------12-12-12-12------7------3|---7|
      E-5--3333--------10-10-10-10--------------|---5| 
   I wanna rock ( ROCK!! )...
      e------------------------------|
      B------------------------------|
      G----------2----------------9\5|
      D-7--7--7--2--5----7-7-7----9\5|x2
      A-7--7--7--0--5----7-7-7----7\3|
      E-5--5--5-----3----5-5-5-------|

      e---------I-------------|
      B-----------------------|
      G------O-----D---------W|
      D-----L-------O-------O-|
      A----O---------N-----N--|
      E---S-----------T---K---|

      e-----------------------------------------|
      B-----------------------------------------|
      G-----------------------------------------|
      D-7--5555--------12-12-12-12------2------5|
      A-7--5555--------12-12-12-12------2------5|
      E-5--3333--------10-10-10-10------0------3|

      e-----------------------------------------|----|
      B-----------------------------------------|----|
      G---------------------------------9------5|----|
      D-7--5555--------12-12-12-12------9------5|---7|x2
      A-7--5555--------12-12-12-12------7------3|---7|
      E-5--3333--------10-10-10-10--------------|---5|

       Thats it...i think. VOTE!!! WOO ERIC AND RYAN!!!
             A
         E       B
        V         A
       A           L
      H             L
Comments