Twisted Perspective - Blind Chords & Tabs

 

Blind Chords & Tabs

Twisted Perspective Chords & Tabs

Version: 2 Type: Tab 0 ratings
1 star 2 stars 3 stars 4 stars 5 stars
comments

Blind Tab

INTRO RIFF


E---4-4-4-4---------------------------------------------------------------------|
B---3-3-3-3---------------------------------------------------------------------|
G---3-3-3-3---          guitar 2      carry on through Main riff on the 5-5-5-5-|
D-------------------------------------------------------------------------------|
A-------------------------------------------------------------------------------|
E-------------------------------------------------------------------------------|


MAIN RIFF

E--------------------------------------------------------------------------------|
B--------------------------------------------------------------------------------|
G--------------------------------------------------------------------------------|
D--------------------------------------------------------------------------------|     guitar 1
A-0-2-0-3-0-2-0-3/-5-5-5-5-------------------------------------------------------|
E-0-2-0-3-0-2-0-3/-5-5-5-5-------------------------------------------------------|


VERSES RIFF

E-------------------------------------------------------------------------------|
B-------------------------------------------------------------------------------|
G---------------------------------REPEAT 4 TIMES--------------------------------|
D-------------------------------------------------------------------------------|       guitar 1
A-0-1-1-0-----------------------------------------------------------------------|
E-0-1-1-0-----------------------------------------------------------------------|

RIFF AFTER 1ST VERSE
[ Tab from: http://www.guitartabs.cc/tabs/t/twisted_perspective/blind_tab_ver_2.html ]
E------------------------------------------------------------------------------------------------------|
B------------------------------------------------------------------------------        guitar  1 and 2-|
G------------------------------------------------------------------------------------------------------|
D------------------------------------------------------------------------------------------------------|
A-0-0/1-2--------0-0-0-1-------------------------------------------------------------------------------|
E-0-0/1-2--------0-0-0-1-------------------------------------------------------------------------------|


Outro

E-----------------------------------20}----------------20}-------20}----|
B-----------------------------------------------------------------------|
G-----------------------------------------------------------------------|
D-----------------------------------------------------------------------|   guitar 1
A-----------------------------------------------------------------------|
E-----------------------------------------------------------------------|


E---------------------------------------------------------------------------------|
B---------------------------------------------------------------------------------|
G----------------------------------------15/9--------------15/9-----15/9----------|
D----------------------------------------------------------------------- guitar 2-|
A---------------------------------------------------------------------------------|
E---------------------------------------------------------------------------------|


}=Bend 1 step

/=Slide

SEEEya
Comments