Twista - Hope Chords & Tabs

 

Hope Chords & Tabs

Twista Chords & Tabs

Version: 2 Type: Tab 0 ratings
1 star 2 stars 3 stars 4 stars 5 stars
comments

Hope Tab

V is bend down

e --------------------------------|
B -------1--------3-------1-------|
G -----0--------0-------2---2---0-|
D ---2--------0-------2-------2---|
A -3--------2-------0-------------|
E --------------------------------|

e ---------------3----------------|
B -------5-----3----------1-------|
G -----5----------------2---2---2-|
D ---2-------0--------2-------2---|
A -3-------2--------0-------------|
E --------------------------------|
[ Tab from: http://www.guitartabs.cc/tabs/t/twista/hope_tab_ver_2.html ]
e --------------------------------|
B -------1--------3-------1-------|
G -----0--------0-------2---2---2-|
D ---2--------0-------2-------2---|
A -3--------2-------0-------------|
E --------------------------------|

e --------------------------8-8h10p8------8V-|
B -------6-------9-------10-----------10-----|
G -----7-------8-----------------------------|
D ---7-------9--------10---------------------|
A -5-------7--------8------------------------|
E -------------------------------------------|


-jayohohehn
Comments