Twin Shadow - Slow Chords & Tabs

 

Slow Chords & Tabs

Twin Shadow Chords & Tabs

Version: 2 Type: Bass Tab 0 ratings
1 star 2 stars 3 stars 4 stars 5 stars
comments

Slow Bass Tab

----------------------------------------------------------------------
			     SLOW - Twin Shadow
----------------------------------------------------------------------

Tabbed By : corndunks	
e-mail: corndunks@hotmail.com

Tuning:Drop D

Wrote this up pretty quick, it isn't exact, but hopefully you will be able to fill 
in all the pup. This could also be played half a step down..
Rate and comment ya turkeys!

[VERSE] 
G----------------------------------------------------|
D----------------------------------------------------|
A--5-6-5--------------5-6-5--------------------------|
D--------8-8--5-5-8-8-------8-8--5-5-8-8-8\----------|
[ Tab from: http://www.guitartabs.cc/tabs/t/twin_shadow/slow_btab_ver_2.html ]
G----------------------------------------------------|
D------3-3-------3-5-6------3-3-------5-6-5-6--------|
A----------------------------------------------------|
D-3-3------3-3---------3-3-------3-3-----------------|


G----------------------------------------------------|
D--6-6-6-6-6-5--------------6-6-6-6-6-5--------------|
A--------------6-3-3-6-6-6---------------6-3-3-6-6-6-|
D----------------------------------------------------|

G---------------------------------------------------||
D---------------------------------------------------||
A--5-6-5-----------------5-6-5----------------------||
D--------8-8--5-5-8-1-1--------8-8--5-5-8-1-1-------||

[CHORUS]
G------------------------------------------------------------------|
D------------------5-5-5-5-5-5-5-5---------------------------------|
A--6-6-6-6-6-6-6-6-------------------------------------------------|
D----------------------------------8-8-8-8-8-8-8-8-5-5-5-5-5-5-5-8-|


[VERSE]x2
[CHORUS]x2
[VERSE]x4
[BREAK](No Bass)
[CHORUS]x4

http://twinshadow.net/
Comments