Twelve Minute Mile - Yesterdays Tommorow Chords & Tabs

 

Yesterdays Tommorow Chords & Tabs

Twelve Minute Mile Chords & Tabs

Version: 1 Type: Tab 0 ratings
1 star 2 stars 3 stars 4 stars 5 stars
comments

Yesterdays Tommorow Tab

Author/Artist: 12 minute mile
Title: Yesterdays tomorrow
Album: Demo
Transcribed by: Justin Bell
------------------------------------------------------------------------------
------------------------------------------------------------------------------
---------------------------------------------4-2-1----------------------------
---9------6-7------------------9-------6--7---------4-2-1---------------------
-7---7--4--------7------9----7---7--4-----------------------------------------
---------------5---5--7---7---------------------------------------------------
       this is played at the begging and after every verse.                   
[ Tab from: http://www.guitartabs.cc/tabs/t/twelve_minute_mile/yesterdays_tommorow_tab.html ]
--------------------------------|----------------------------------|----------
--------------------------------|----------------------------------|----------
-999999--666666-----------------|---9xxxxxx--6xxxxxx---------------|----------
-999999--666666--777777--999999-|---9xxxxxx--6xxxxxx--7xxxxxx--9999|----------
-777777--444444--777777--999999-|---7xxxxxx--4xxxxxx--7xxxxxx--9999|----------
-----------------555555--777777-|---------------------5xxxxxx--7777|----------
   do this once then rake do it with the rakes twice then go back to the reg. 

------------------------------------------------------------------------------
------------------------------------------------------------------------------
-9999-------------------------------------------------------------------------
-9999-----9999-----6666-----7777----------------------------------------------
-7777-----9999-----6666-----7777----------------------------------------------
----------7777-----4444-----5555----------------------------------------------
 (palm muted)        repeat twice. this is the chorus.                        

Comments