Tweak - Inside Out Chords & Tabs

 

Inside Out Chords & Tabs

Tweak Chords & Tabs

Version: 1 Type: Bass Tab 0 ratings
1 star 2 stars 3 stars 4 stars 5 stars
comments

Inside Out Bass Tab

Tweak - Inside Out
Tabbed by: Greg (meltdown@webmail.co.za)
This is one of my fav Tweak songs!!

Verse
G|--------------------------------------|
D|--------------------------------------|
A|----------4-x-x-4--5-x-x-5--7-x-x-7---|
E|-5-x-x-5------------------------------|

G|--------------------------------------|
D|--------------------------------------|
A|----------4-4-4-4--5-5-5-5--7-7-7-7---|
E|-5-5-5-5------------------------------|

Pre Chorus
G|------------------------------------|
D|------------------------------------|
A|---------4-4-----5-5-5-5--7-7-7-7---|
E|-5-5--------------------------------|

Chorus
G|----------------------------------|
D|----------------------------------|
A|---------4--4-4--5--5-5--7--7-7---|
E|-5--5-5---------------------------|
[ Tab from: http://www.guitartabs.cc/tabs/t/tweak/inside_out_btab.html ]
Bridge
G|----------------------------------------------------------------------|
D|----------------------------------------------------------------------|
A|-----------------------------------4-4-4-4-4-4-4-4--4-4-4-4-4-4-4-4---|
E|-5-5-5-5-5-5-5-5--5-5-5-5-5-5-5-5-------------------------------------|

G|----------------------------------------------------------------------|
D|----------------------------------------------------------------------|
A|-5-5-5-5-5-5-5-5--5-5-5-5-5-5-5-5--7-7-7-7-7-7-7-7--7-7-7-7-7-7-7-7---|
E|----------------------------------------------------------------------|

G|----------------------------------------|
D|----------------------------------------|
A|------------------4-4-4-4--5-5-5-5--7---|
E|-5-5-5-5-5-5-5-5------------------------|

Interlude
G|----------------------|
D|----------------------|
A|------4-5--x-5-5--7---|
E|-5--5-----------------|
Comments