Tweak - Birthday Card Chords & Tabs

 

Birthday Card Chords & Tabs

Tweak Chords & Tabs

Version: 2 Type: Tab 0 ratings
1 star 2 stars 3 stars 4 stars 5 stars
comments

Birthday Card Tab

   
Tweak-2002
Birthday Card
The Romantic Lure of Possum Worship
Tabbed by ToRK
Email at eved05@stdavids.co.za
-----------------------------------------------------------------------

 Chord Chart:
   C     B     G     A     D     F
e -----------------------------------|
B -----------------------------------|
G -----------------------------------|
D -5-----4-----------------7---------|
A -3-----2-----5-----7-----5-----3---|
E -------------3-----5-----------1---|

xxx = palm mute
>   = let ring
PM..= palm mute


Intro 3X w/distortion
e -------------------|
B -------------------|
G -----------xx5-x44-|
D -7-333-555-xx5-x44-|
A -7-333-555-xx3-x22-|
E -5-111-333---------|

Bridge: 
e -----------------------------------------------|
B -----------------------------------------------|
G -----------------------------------------------|
D -555555-777777-5>--55---------------55---------|
A -333333-555555-3>--33-77-55-55-5-7--33-77-55---|
E ----------------------55-33-33-3-5-----55-33---|
 PM.............              ..                  

Verse1 X4: “ I want to thank you for the Birthday Card”
e ------------------|
B ------------------|
G ------------------|
D -55---------------|
A -33-77-55-55-5-7--|
E ----55-33-33-3-5--|
PM          ..  

Pre-Chorus: w/distortion
F                             C
Here’s a song to say thank you very much
G                    A                 C
Its unbelievable that you don’t give a fuck about a damn thing

Bridge2: You don’t care, You never did...”
e ------------------|
B ------------------|
G ------------------|
D -555555-777777-5>-|
A -333333-555555-3>-|
E ------------------|
pm..............

Chorus:” I want to say thank you for givin’ me nothing...”
e --------------------|
B --------------------|
G -------------xx5-x4-|  X3
D -777-333-555-xx5-x4-|
A -777-333-555-xx3-x2-|
E -555-111-333--------|

Play 2nd Bridge again 

Bridge3: w/distortion
e ---------------------------|
B ---------------------------|
G ---------------------------|
D -55---------------55-------|
A -33-77-55-55-5-7--33-77-55-|
E ----55-33-33-3-5-----55-33-|
Pm          ..      

Verse2: X4 Palm Muted
e ---------------------------|
B ---------------------------|
G ---------------------------|
D -55---------------55-------|
A -33-77-55-55-5-7--33-77-55-|
E ----55-33-33-3-5-----55-33-|
Pm          ..      

Play Pre-Chorus Again

Bridge2 Again
[ Tab from: http://www.guitartabs.cc/tabs/t/tweak/birthday_card_tab_ver_2.html ]
Chorus
e --------------------|
B --------------------|
G -------------xx5-x4-| X3
D -777-333-555-xx5-x4-| 
A -777-333-555-xx3-x2-|
E -555-111-333--------|

“Don’t expect a birthday card next year!”
e --------------------|
B --------------------|
G –-------------------|
D -5555555-7777777-5>-|
A -3333333-5555555-3>-|
E –-------------------|

Bridge4
e ---------------------------|
B ---------------------------|
G ---------------------------|
D -55---------------55-------|
A -33-77-55-55-5-7--33-77-55-|
E ----55-33-33-3-5-----55-33-|
Pm          ..          

Verse3 X4:
e ------------------|
B ------------------|
G ------------------|
D -55---------------|
A -33-77-55-55-5-7--|
E ----55-33-33-3-5--|
Pm          ..           

Pre Chorus Again

Bridge2

Chorus
e --------------------|
B --------------------|
G -------------xx5-x4-| X3
D -777-333-555-xx5-x4-|
A -777-333-555-xx3-x2-|
E -555-111-333--------|

“P.S. Don’t expect a birthday card next year!”
e ----------------------------------|
B ----------------------------------|
G –---------------------------------|
D –55-xx55-xx55-xx55-xx77-xx77--5>--|
A –33-xx33 xx33-xx33-xx55-xx55--3>--|
E –---------------------------------|

Interlude1:
e --------------------------------------|
B ------------------------------8-------|
G –----9-------9----9-9----9------9-----|
D –-10---10-10---10-----10---10-----9---|
A –-----------------------------------9-|
E –-------------------------------------|

Interlude2:
e ----------------------------------------------------
B ----------------------------------------------------
G –---------------------------------------------------
D –xx10-x10-x10-x10-x10-10---xx10-x10-x10-x10-x10-10—-
A –---------------------------------------------------
E –---------------------------------------------------

e --------------------------------------------------------------------|
B --------------------------------------------------------------------|
G –-------------------------------------------------------------------|
D –10-10-12-12-12-14-14-15-14--10-10-12-12-12-14-14-15-14--10-10-12-12  12-14-14-15-14-|
A –-------------------------------------------------------------------|
E –-------------------------------------------------------------------|

“P.S. Don’t expect a birthday card next year!”
e ---------------------|
B ---------------------|
G –--------------------|
D –5555555-7777777-5>--|
A –3333333-5555555-3>--|
E –--------------------|

Outro X4: w/distortion
e ------------------|
B ------------------|
G –-----------------|
D –55---------------|
A –33-77-55-55-5-7--|
E –---55-33-33-3-5--|
Pm          ..

Riff Order:
Intro
Bridge
Verse1
Pre-Chorus
Bridge2
Chorus
Bridge2
Bridge3
Verse2
Pre-Chorus
Bridge2
Chorus
Bridge2
Bridge4
Verse3
Pre-Chorus
Bridge2
Chorus
Interlude1
Interlude2
Bridge2
Outro
Comments