Tweak - Birthday Card Chords & Tabs

 

Birthday Card Chords & Tabs

Tweak Chords & Tabs

Version: 1 Type: Tab 0 ratings
1 star 2 stars 3 stars 4 stars 5 stars
comments

Birthday Card Tab

Song-Birthday Card
Artist-Tweak
Album-The Romantic Lure Of Possum Worship

this is most of the song, but i'll tab the rest later.
email-dexterholland1@hotmail.com

Intro 3x (only play brackets first time)
e---------------------------------
b---------------------------------
g---------------------------------
d--(-7-10-)-10-10--7-7--5-5--7-5--
a--(-7-10-)-10-10--7-7--5-5--7-5--
e--(-5--8-)--8--8--5-5--3-3--5-3--

Riff 1 m=mute, *=play 8x (ie **= play 16x), []=let ring
e----------------
b------------[8]-
g---**----*------
d--7----10-------
a--7----10-------
e--5-----8-------
   m     m

Pre-Verse 
e------------------------------------------------
b------------------------------------------------
g------------------------------------------------
d--10-10--7-7--5-5--5555--5--7--10-10--7-7--5-5--
a--10-10--7-7--5-5--5555--5--7--10-10--7-7--5-5--
e---8--8--5-5--3-3--3333--3--5---8--8--5-5--3-3--
                    mmmm
[ Tab from: http://www.guitartabs.cc/tabs/t/tweak/birthday_card_tab.html ]
Verse 4x
e-------------------------------
b-------------------------------
g-------------------------------
d--10-10--7-7--5-5--5555--5--7--
a--10-10--7-7--5-5--5555--5--7--
e---8--8--5-5--3-3--3333--3--5--
                    mmmm

Pre-Chorus
e---------------------------------------
b---------------------------------------
g---------------------------------------
d--10-10--7-7--5-5---10-10--7-7--5-[5]--
a--10-10--7-7--5-5---10-10--7-7--5-[5]--
e---8--8--5-5--3-3----8--8--5-5--3-[3]--

Riff 2
e------
b------
g---**-
d--8---
a--8---
e--6---
   m

Chorus x3
e------------------------
b------------------------
g------------------------
d--7-7--10-10--5-5--7-7--
a--7-7--10-10--5-5--7-7--
e--5-5--8--8---3-3--5-5--

play
----> riff 1
      pre-verse (with distortion)
      verse(all muted, with distortion)
      pre-chorus
      riff 2
      chorus
      riff1
      pre-verse
      verse
      pre-chorus
      chorus
      riff2
       
Comments